  0
SECTION
  2
HEADER
  9
$ACADVER
  1
AC1009
  9
$DWGCODEPAGE
  3
dos932
  9
$INSBASE
 10
0.0
 20
0.0
 30
0.0
  9
$EXTMIN
 10
-179.99999999999997
 20
-270.59544499999993
 30
0.0
  9
$EXTMAX
 10
179.99999999999997
 20
263.53181500000005
 30
0.0
  9
$LIMMIN
 10
0.0
 20
0.0
  9
$LIMMAX
 10
0.0
 20
0.0
  9
$ORTHOMODE
 70
               0
  9
$REGENMODE
 70
               1
  9
$FILLMODE
 70
               1
  9
$QTEXTMODE
 70
               0
  9
$MIRRTEXT
 70
               1
  9
$DRAGMODE
 70
               2
  9
$LTSCALE
 40
10.16
  9
$OSMODE
 70
               0
  9
$ATTMODE
 70
               1
  9
$TEXTSIZE
 40
0.2
  9
$TRACEWID
 40
1.0
  9
$TEXTSTYLE
  7
STANDARD
  9
$CLAYER
  8
DATA
  9
$CELTYPE
  6
CONTINUOUS
  9
$CECOLOR
 62
             256
  9
$DIMSCALE
 40
1.0
  9
$DIMASZ
 40
0.18
  9
$DIMEXO
 40
0.0625
  9
$DIMDLI
 40
0.38
  9
$DIMRND
 40
0.0
  9
$DIMDLE
 40
0.0
  9
$DIMEXE
 40
0.18
  9
$DIMTP
 40
0.0
  9
$DIMTM
 40
0.0
  9
$DIMTXT
 40
0.18
  9
$DIMCEN
 40
0.09
  9
$DIMTSZ
 40
0.0
  9
$DIMTOL
 70
               0
  9
$DIMLIM
 70
               0
  9
$DIMTIH
 70
               1
  9
$DIMTOH
 70
               1
  9
$DIMSE1
 70
               0
  9
$DIMSE2
 70
               0
  9
$DIMTAD
 70
               0
  9
$DIMZIN
 70
               0
  9
$DIMBLK
  1

  9
$DIMASO
 70
               1
  9
$DIMSHO
 70
               1
  9
$DIMPOST
  1

  9
$DIMAPOST
  1

  9
$DIMALT
 70
               0
  9
$DIMALTD
 70
               2
  9
$DIMALTF
 40
25.399999999999999
  9
$DIMLFAC
 40
1.0
  9
$DIMTOFL
 70
               0
  9
$DIMTVP
 40
0.0
  9
$DIMTIX
 70
               0
  9
$DIMSOXD
 70
               0
  9
$DIMSAH
 70
               0
  9
$DIMBLK1
  1

  9
$DIMBLK2
  1

  9
$DIMSTYLE
  2
STANDARD
  9
$DIMCLRD
 70
               0
  9
$DIMCLRE
 70
               0
  9
$DIMCLRT
 70
               0
  9
$DIMTFAC
 40
1.0
  9
$DIMGAP
 40
0.09
  9
$LUNITS
 70
               2
  9
$LUPREC
 70
               4
  9
$AXISMODE
 70
               0
  9
$AXISUNIT
 10
0.0
 20
0.0
  9
$SKETCHINC
 40
0.1
  9
$FILLETRAD
 40
0.0
  9
$AUNITS
 70
               0
  9
$AUPREC
 70
               0
  9
$MENU
  1
acad
  9
$ELEVATION
 40
0.0
  9
$PELEVATION
 40
0.0
  9
$THICKNESS
 40
0.0
  9
$LIMCHECK
 70
               0
  9
$BLIPMODE
 70
               0
  9
$CHAMFERA
 40
0.0
  9
$CHAMFERB
 40
0.0
  9
$SKPOLY
 70
               0
  9
$TDCREATE
 40
2457381.488240741
  9
$TDUPDATE
 40
2457381.488240741
  9
$TDINDWG
 40
0.0000000000
  9
$TDUSRTIMER
 40
0.0000000000
  9
$USRTIMER
 70
               1
  9
$ANGBASE
 50
0.0
  9
$ANGDIR
 70
               0
  9
$PDMODE
 70
               1
  9
$PDSIZE
 40
-2.0
  9
$PLINEWID
 40
0.0
  9
$COORDS
 70
               0
  9
$SPLFRAME
 70
               0
  9
$SPLINETYPE
 70
               6
  9
$SPLINESEGS
 70
               8
  9
$ATTDIA
 70
               0
  9
$ATTREQ
 70
               1
  9
$HANDLING
 70
               1
  9
$HANDSEED
  5
245
  9
$SURFTAB1
 70
               6
  9
$SURFTAB2
 70
               6
  9
$SURFTYPE
 70
               6
  9
$SURFU
 70
               6
  9
$SURFV
 70
               6
  9
$UCSNAME
  2

  9
$UCSORG
 10
0.0
 20
0.0
 30
0.0
  9
$UCSXDIR
 10
1.0
 20
0.0
 30
0.0
  9
$UCSYDIR
 10
0.0
 20
1.0
 30
0.0
  9
$PUCSNAME
  2

  9
$PUCSORG
 10
0.0
 20
0.0
 30
0.0
  9
$PUCSXDIR
 10
1.0
 20
0.0
 30
0.0
  9
$PUCSYDIR
 10
0.0
 20
1.0
 30
0.0
  9
$USERI1
 70
               0
  9
$USERI2
 70
               0
  9
$USERI3
 70
               0
  9
$USERI4
 70
               0
  9
$USERI5
 70
               0
  9
$USERR1
 40
0.0
  9
$USERR2
 40
0.0
  9
$USERR3
 40
0.0
  9
$USERR4
 40
0.0
  9
$USERR5
 40
0.0
  9
$WORLDVIEW
 70
               1
  9
$SHADEDGE
 70
               3
  9
$SHADEDIF
 70
              70
  9
$TILEMODE
 70
               1
  9
$MAXACTVP
 70
              64
  9
$PINSBASE
 10
0.0
 20
0.0
 30
0.0
  9
$PLIMCHECK
 70
               0
  9
$PEXTMIN
 10
1.0000000000000000E+20
 20
1.0000000000000000E+20
 30
1.0000000000000000E+20
  9
$PEXTMAX
 10
-1.0000000000000000E+20
 20
-1.0000000000000000E+20
 30
-1.0000000000000000E+20
  9
$PLIMMIN
 10
0.0
 20
0.0
  9
$PLIMMAX
 10
12.0
 20
9.0
  9
$UNITMODE
 70
               0
  9
$VISRETAIN
 70
               0
  9
$PLINEGEN
 70
               1
  9
$PSLTSCALE
 70
               0
  9
$TREEDEPTH
 70
            3020
  0
ENDSEC
  0
SECTION
  2
TABLES
  0
TABLE
  2
VPORT
 70
               1
  0
VPORT
  2
*ACTIVE
 70
               0
 10
0.0
 20
0.0
 11
1.0
 21
1.0
 12
0.0
 22
-3.5318149999999378
 13
0.0
 23
0.0
 14
1.0
 24
1.0
 15
0.0
 25
0.0
 16
0.0
 26
0.0
 36
1.0
 17
0.0
 27
0.0
 37
0.0
 40
534.12725999999998
 41
0.688564
 42
50.0
 43
0.0
 44
0.0
 50
0.0
 51
0.0
 71
               0
 72
            2000
 73
               1
 74
               1
 75
               0
 76
               0
 77
               0
 78
               0
  0
ENDTAB
  0
TABLE
  2
LTYPE
 70
              11
  0
LTYPE
  2
CONTINUOUS
 70
              64
  3
Solid line
 72
              65
 73
               0
 40
0.0
  0
LTYPE
  2
STYLE_01
 70
               0
  3

 72
              65
 73
               2
 40
0.4166412353515625
 49
0.208282470703125
 49
-0.2083587646484375
  0
LTYPE
  2
STYLE_02
 70
               0
  3

 72
              65
 73
               2
 40
0.694427490234375
 49
0.4860687255859375
 49
-0.2083587646484375
  0
LTYPE
  2
STYLE_03
 70
               0
  3

 72
              65
 73
               2
 40
1.25
 49
1.0416412353515625
 49
-0.2083587646484375
  0
LTYPE
  2
STYLE_04
 70
               0
  3

 72
              65
 73
               2
 40
1.5277099609375
 49
1.319427490234375
 49
-0.208282470703125
  0
LTYPE
  2
STYLE_05
 70
               0
  3

 72
              65
 73
               2
 40
0.208282470703125
 49
0.069427490234375
 49
-0.13885498046875
  0
LTYPE
  2
STYLE_06
 70
               0
  3

 72
              65
 73
               4
 40
1.0416412353515625
 49
0.625
 49
-0.208282470703125
 49
0.069427490234375
 49
-0.1389312744140625
  0
LTYPE
  2
STYLE_07
 70
               0
  3

 72
              65
 73
               6
 40
1.875
 49
0.625
 49
-0.208282470703125
 49
0.625
 49
-0.2083587646484375
 49
0.069427490234375
 49
-0.1389312744140625
  0
LTYPE
  2
STYLE_08
 70
               0
  3

 72
              65
 73
               6
 40
1.25
 49
0.625
 49
-0.208282470703125
 49
0.069427490234375
 49
-0.1389312744140625
 49
0.069427490234375
 49
-0.1389312744140625
  0
LTYPE
  2
STYLE_09
 70
               0
  3

 72
              65
 73
               4
 40
5.0
 49
3.75
 49
-0.2777862548828125
 49
0.694427490234375
 49
-0.2777862548828125
  0
LTYPE
  2
STYLE_10
 70
               0
  3

 72
              65
 73
               6
 40
5.9375
 49
3.75
 49
-0.2777862548828125
 49
0.694427490234375
 49
-0.2777862548828125
 49
0.625
 49
-0.3125
  0
ENDTAB
  0
TABLE
  2
LAYER
 70
               6
  0
LAYER
  2
0
 70
               0
 62
               7
  6
CONTINUOUS
  0
LAYER
  2
HIBINO-BASE
 70
               0
 62
               7
  6
CONTINUOUS
  0
LAYER
  2
PATTERN_FILL
 70
               0
 62
               7
  6
CONTINUOUS
  0
LAYER
  2
SPEC
 70
               0
 62
               7
  6
CONTINUOUS
  0
LAYER
  2
DIMNSIONS
 70
               0
 62
               7
  6
CONTINUOUS
  0
LAYER
  2
DATA
 70
               0
 62
               7
  6
CONTINUOUS
  0
ENDTAB
  0
TABLE
  2
STYLE
 70
               2
  0
STYLE
  2
STANDARD
 70
               0
 40
0.0
 41
1.0
 50
0.0
 71
               0
 42
0.0
  3
txt
  4
BIGFONT.SHX
  0
STYLE
  2
_______
 70
               0
 40
0.0
 41
1.0
 50
0.0
 71
               0
 42
0.0
  3

  4
ＭＳ ゴシック
  0
ENDTAB
  0
TABLE
  2
VIEW
 70
               0
  0
ENDTAB
  0
TABLE
  2
UCS
 70
               0
  0
ENDTAB
  0
TABLE
  2
APPID
 70
               1
  0
APPID
  2
ACAD
 70
               0
  0
ENDTAB
  0
TABLE
  2
DIMSTYLE
 70
               1
  0
DIMSTYLE
  2
STANDARD
 70
               0
  3

  4

  5

  6

  7

 40
1.0
 41
0.18
 42
0.0625
 43
0.38
 44
0.18
 45
0.0
 46
0.0
 47
0.0
 48
0.0
 71
               0
 72
               0
 73
               1
 74
               1
 75
               0
 76
               0
 77
               0
 78
               0
140
0.18
141
0.09
142
0.0
143
25.399999999999999
144
1.0
145
0.0
146
1.0
147
0.09
170
               0
171
               2
172
               0
173
               0
174
               0
175
               0
176
               0
177
               0
178
               0
  0
ENDTAB
  0
ENDSEC
  0
SECTION
  2
BLOCKS
  0
ENDSEC
  0
SECTION
  2
ENTITIES
  0
TEXT
  8
HIBINO-BASE
 62
               7
  5
2D
 10
46.713079999999991
 20
-251.33355833333331
 30
0.0
 40
3.2576822916666663
  1
'15.12.
  7
_______
 11
46.713079999999991
 21
-247.483209375
 31
0.0
 73
               3
  0
TEXT
  8
HIBINO-BASE
 62
               7
  5
2E
 10
35.0
 20
-253.02873833333331
 30
0.0
 40
3.2576822916666663
  1
2
  7
_______
 11
35.0
 21
-249.17838937499999
 31
0.0
 73
               3
  0
LINE
  8
HIBINO-BASE
  6
CONTINUOUS
 62
               7
  5
2F
 10
-179.99999999999997
 20
263.53181500000005
 30
0.0
 11
179.99999999999997
 21
263.53181500000005
 31
0.0
  0
LINE
  8
HIBINO-BASE
  6
CONTINUOUS
 62
               7
  5
30
 10
179.99999999999997
 20
-256.46818500000001
 30
0.0
 11
-179.99999999999997
 21
-256.46818500000001
 31
0.0
  0
LINE
  8
HIBINO-BASE
  6
CONTINUOUS
 62
               7
  5
31
 10
-179.99999999999997
 20
-256.46818500000001
 30
0.0
 11
-179.99999999999997
 21
263.53181500000005
 31
0.0
  0
LINE
  8
HIBINO-BASE
  6
CONTINUOUS
 62
               7
  5
32
 10
179.99999999999997
 20
263.53181500000005
 30
0.0
 11
179.99999999999997
 21
-256.46818500000001
 31
0.0
  0
LINE
  8
HIBINO-BASE
  6
CONTINUOUS
 62
               7
  5
33
 10
0.0000000000000284
 20
-211.46818500000001
 30
0.0
 11
179.99999999999997
 21
-211.46818500000001
 31
0.0
  0
LINE
  8
HIBINO-BASE
  6
CONTINUOUS
 62
               7
  5
34
 10
0.0000000000000284
 20
-256.46818500000001
 30
0.0
 11
0.0000000000000284
 21
-211.46818500000001
 31
0.0
  0
TEXT
  8
HIBINO-BASE
 62
               7
  5
35
 10
1.8000000000000398
 20
-217.0782383333333
 30
0.0
 40
3.2576822916666663
  1
NOTE
  7
_______
 11
1.8000000000000398
 21
-213.22788937499999
 31
0.0
 73
               3
  0
LINE
  8
HIBINO-BASE
  6
CONTINUOUS
 62
               7
  5
36
 10
70.000000000000028
 20
-256.46818500000001
 30
0.0
 11
70.000000000000028
 21
-211.46818500000001
 31
0.0
  0
TEXT
  8
HIBINO-BASE
 62
               7
  5
37
 10
71.799999999999983
 20
-217.0782383333333
 30
0.0
 40
3.2576822916666663
  1
TITLE
  7
_______
 11
71.799999999999983
 21
-213.22788937499999
 31
0.0
 73
               3
  0
LINE
  8
HIBINO-BASE
  6
CONTINUOUS
 62
               7
  5
38
 10
0.0000000000000284
 20
-236.46818500000001
 30
0.0
 11
179.99999999999997
 21
-236.46818500000001
 31
0.0
  0
TEXT
  8
HIBINO-BASE
 62
               7
  5
39
 10
96.799999999999983
 20
-241.9655983333333
 30
0.0
 40
3.2576822916666663
  1
DRAWN
  7
_______
 11
96.799999999999983
 21
-238.11524937499999
 31
0.0
 73
               3
  0
TEXT
  8
HIBINO-BASE
 62
               7
  5
3A
 10
46.799999999999983
 20
-241.9655983333333
 30
0.0
 40
3.2576822916666663
  1
DATE
  7
_______
 11
46.799999999999983
 21
-238.11524937499999
 31
0.0
 73
               3
  0
TEXT
  8
HIBINO-BASE
 62
               7
  5
3B
 10
26.799999999999983
 20
-241.9655983333333
 30
0.0
 40
3.2576822916666663
  1
SCALE
  7
_______
 11
26.799999999999983
 21
-238.11524937499999
 31
0.0
 73
               3
  0
TEXT
  8
HIBINO-BASE
 62
               7
  5
3C
 10
71.799999999999983
 20
-241.9655983333333
 30
0.0
 40
3.2576822916666663
  1
DESIGN
  7
_______
 11
71.799999999999983
 21
-238.11524937499999
 31
0.0
 73
               3
  0
TEXT
  8
HIBINO-BASE
 62
               7
  5
3D
 10
146.79999999999998
 20
-241.9655983333333
 30
0.0
 40
3.2576822916666663
  1
DRAWING NO.
  7
_______
 11
146.79999999999998
 21
-238.11524937499999
 31
0.0
 73
               3
  0
TEXT
  8
HIBINO-BASE
 62
               7
  5
3E
 10
121.79999999999998
 20
-241.9655983333333
 30
0.0
 40
3.2576822916666663
  1
CHECK
  7
_______
 11
121.79999999999998
 21
-238.11524937499999
 31
0.0
 73
               3
  0
LINE
  8
HIBINO-BASE
  6
CONTINUOUS
 62
               7
  5
3F
 10
28.750000000000028
 20
-253.96818500000001
 30
0.0
 11
36.250000000000028
 21
-246.46818500000001
 31
0.0
  0
TEXT
  8
HIBINO-BASE
 62
               7
  5
40
 10
27.500000000000028
 20
-249.27873833333334
 30
0.0
 40
3.2576822916666663
  1
1
  7
_______
 11
27.500000000000028
 21
-245.42838937500002
 31
0.0
 73
               3
  0
LINE
  8
HIBINO-BASE
  6
CONTINUOUS
 62
               7
  5
41
 10
25.000000000000028
 20
-256.46818500000001
 30
0.0
 11
25.000000000000028
 21
-236.46818500000001
 31
0.0
  0
LINE
  8
HIBINO-BASE
  6
CONTINUOUS
 62
               7
  5
42
 10
44.999999999999972
 20
-256.46818500000001
 30
0.0
 11
44.999999999999972
 21
-236.46818500000001
 31
0.0
  0
LINE
  8
HIBINO-BASE
  6
CONTINUOUS
 62
               7
  5
43
 10
94.999999999999972
 20
-236.46818500000001
 30
0.0
 11
94.999999999999972
 21
-256.46818500000001
 31
0.0
  0
LINE
  8
HIBINO-BASE
  6
CONTINUOUS
 62
               7
  5
44
 10
145.00000000000003
 20
-236.46818500000001
 30
0.0
 11
145.00000000000003
 21
-256.46818500000001
 31
0.0
  0
LINE
  8
HIBINO-BASE
  6
CONTINUOUS
 62
               7
  5
45
 10
119.99999999999997
 20
-256.46818500000001
 30
0.0
 11
119.99999999999997
 21
-236.46818500000001
 31
0.0
  0
TEXT
  8
HIBINO-BASE
 62
               7
  5
46
 10
98.011620022069252
 20
-251.33355833333329
 30
0.0
 40
3.2576822916666663
  1
N.Sasaki
  7
_______
 11
98.011620022069252
 21
-247.48320937499997
 31
0.0
 73
               3
  0
TEXT
  8
HIBINO-BASE
 62
               7
  5
47
 10
7.7666666666667368
 20
-253.70151833333333
 30
0.0
 40
6.5153645833333327
  1
A4
  7
_______
 11
7.7666666666667368
 21
-246.00082041666664
 31
0.0
 73
               3
  0
TEXT
  8
HIBINO-BASE
 62
               7
  5
48
 10
1.9166666666666572
 20
-242.29976166666663
 30
0.0
 40
3.2576822916666663
  1
PAPER SIZE
  7
_______
 11
1.9166666666666572
 21
-238.44941270833331
 31
0.0
 73
               3
  0
TEXT
  8
HIBINO-BASE
 62
               7
  5
49
 10
-165.63199999999998
 20
-270.59544499999993
 30
0.0
 40
7.2000883593749991
  1
Hibino Corporation
  7
_______
 11
-165.63199999999998
 21
-262.08545224062493
 31
0.0
 73
               3
  0
TEXT
  8
HIBINO-BASE
 62
               7
  5
4A
 10
100.13678000000002
 20
-270.59544499999993
 30
0.0
 40
7.2000883593749991
  1
ヒビノ株式会社
  7
_______
 11
100.13678000000002
 21
-262.08545224062493
 31
0.0
 73
               3
  0
LINE
  8
PATTERN_FILL
  6
CONTINUOUS
 62
               7
  5
4B
 10
-94.790873570753504
 20
59.742326114768716
 30
0.0
 11
-91.899691705101375
 21
64.749999999999986
 31
0.0
  0
LINE
  8
PATTERN_FILL
  6
CONTINUOUS
 62
               7
  5
4C
 10
-95.473448536232652
 20
54.22994457566206
 30
0.0
 11
-89.399691705101375
 21
64.749999999999986
 31
0.0
  0
LINE
  8
PATTERN_FILL
  6
CONTINUOUS
 62
               7
  5
4D
 10
-96.1560235017118
 20
48.717563036555433
 30
0.0
 11
-86.899691705101375
 21
64.749999999999986
 31
0.0
  0
LINE
  8
PATTERN_FILL
  6
CONTINUOUS
 62
               7
  5
4E
 10
-96.838598467190948
 20
43.205181497448805
 30
0.0
 11
-84.399691705101375
 21
64.749999999999986
 31
0.0
  0
LINE
  8
PATTERN_FILL
  6
CONTINUOUS
 62
               7
  5
4F
 10
-97.521173432670096
 20
37.69279995834215
 30
0.0
 11
-81.899691705101375
 21
64.749999999999986
 31
0.0
  0
LINE
  8
PATTERN_FILL
  6
CONTINUOUS
 62
               7
  5
50
 10
-98.203748398149244
 20
32.180418419235551
 30
0.0
 11
-79.399691705101375
 21
64.749999999999986
 31
0.0
  0
LINE
  8
PATTERN_FILL
  6
CONTINUOUS
 62
               7
  5
51
 10
-98.886323363628392
 20
26.668036880128923
 30
0.0
 11
-76.899691705101375
 21
64.749999999999986
 31
0.0
  0
LINE
  8
PATTERN_FILL
  6
CONTINUOUS
 62
               7
  5
52
 10
-96.916352203496743
 20
25.749999999999986
 30
0.0
 11
-74.399691705101375
 21
64.749999999999986
 31
0.0
  0
LINE
  8
PATTERN_FILL
  6
CONTINUOUS
 62
               7
  5
53
 10
-94.416352203496743
 20
25.749999999999986
 30
0.0
 11
-71.899691705101375
 21
64.749999999999986
 31
0.0
  0
LINE
  8
PATTERN_FILL
  6
CONTINUOUS
 62
               7
  5
54
 10
-91.916352203496743
 20
25.749999999999986
 30
0.0
 11
-69.399691705101375
 21
64.749999999999986
 31
0.0
  0
LINE
  8
PATTERN_FILL
  6
CONTINUOUS
 62
               7
  5
55
 10
-97.088854520680869
 20
12.460836165447247
 30
0.0
 11
-95.189854895393026
 21
15.749999999999986
 31
0.0
  0
LINE
  8
PATTERN_FILL
  6
CONTINUOUS
 62
               7
  5
56
 10
-89.416352203496743
 20
25.749999999999986
 30
0.0
 11
-66.899691705101375
 21
64.749999999999986
 31
0.0
  0
LINE
  8
PATTERN_FILL
  6
CONTINUOUS
 62
               7
  5
57
 10
-96.643919829674658
 20
8.9013586373977063
 30
0.0
 11
-92.689854895393026
 21
15.749999999999986
 31
0.0
  0
LINE
  8
PATTERN_FILL
  6
CONTINUOUS
 62
               7
  5
58
 10
-86.916352203496743
 20
25.749999999999986
 30
0.0
 11
-64.399691705101375
 21
64.749999999999986
 31
0.0
  0
LINE
  8
PATTERN_FILL
  6
CONTINUOUS
 62
               7
  5
59
 10
-94.808657048910007
 20
7.7499999999999858
 30
0.0
 11
-90.189854895393026
 21
15.749999999999986
 31
0.0
  0
LINE
  8
PATTERN_FILL
  6
CONTINUOUS
 62
               7
  5
5A
 10
-84.416352203496743
 20
25.749999999999986
 30
0.0
 11
-61.899691705101375
 21
64.749999999999986
 31
0.0
  0
LINE
  8
PATTERN_FILL
  6
CONTINUOUS
 62
               7
  5
5B
 10
-92.308657048910007
 20
7.7499999999999858
 30
0.0
 11
-87.689854895393026
 21
15.749999999999986
 31
0.0
  0
LINE
  8
PATTERN_FILL
  6
CONTINUOUS
 62
               7
  5
5C
 10
-81.916352203496743
 20
25.749999999999986
 30
0.0
 11
-59.399691705101375
 21
64.749999999999986
 31
0.0
  0
LINE
  8
PATTERN_FILL
  6
CONTINUOUS
 62
               7
  5
5D
 10
-89.808657048910007
 20
7.7499999999999858
 30
0.0
 11
-85.189854895393026
 21
15.749999999999986
 31
0.0
  0
LINE
  8
PATTERN_FILL
  6
CONTINUOUS
 62
               7
  5
5E
 10
-79.416352203496743
 20
25.749999999999986
 30
0.0
 11
-57.160358672758846
 21
64.29851156816234
 31
0.0
  0
LINE
  8
PATTERN_FILL
  6
CONTINUOUS
 62
               7
  5
5F
 10
-87.308657048910007
 20
7.7499999999999858
 30
0.0
 11
-82.689854895393026
 21
15.749999999999986
 31
0.0
  0
LINE
  8
PATTERN_FILL
  6
CONTINUOUS
 62
               7
  5
60
 10
-76.916352203496743
 20
25.749999999999986
 30
0.0
 11
-55.745913253099573
 21
62.41827588062317
 31
0.0
  0
LINE
  8
PATTERN_FILL
  6
CONTINUOUS
 62
               7
  5
61
 10
-84.808657048910007
 20
7.7499999999999858
 30
0.0
 11
-80.189854895393026
 21
15.749999999999986
 31
0.0
  0
LINE
  8
PATTERN_FILL
  6
CONTINUOUS
 62
               7
  5
62
 10
-74.416352203496743
 20
25.749999999999986
 30
0.0
 11
-55.135264111989116
 21
59.145824199702517
 31
0.0
  0
LINE
  8
PATTERN_FILL
  6
CONTINUOUS
 62
               7
  5
63
 10
-82.308657048910007
 20
7.7499999999999858
 30
0.0
 11
-77.689854895393026
 21
15.749999999999986
 31
0.0
  0
LINE
  8
PATTERN_FILL
  6
CONTINUOUS
 62
               7
  5
64
 10
-71.916352203496743
 20
25.749999999999986
 30
0.0
 11
-54.693770911420145
 21
55.580385835362023
 31
0.0
  0
LINE
  8
PATTERN_FILL
  6
CONTINUOUS
 62
               7
  5
65
 10
-79.808657048910007
 20
7.7499999999999858
 30
0.0
 11
-75.189854895393026
 21
15.749999999999986
 31
0.0
  0
LINE
  8
PATTERN_FILL
  6
CONTINUOUS
 62
               7
  5
66
 10
-69.416352203496743
 20
25.749999999999986
 30
0.0
 11
-54.252277710851061
 21
52.014947471021529
 31
0.0
  0
LINE
  8
PATTERN_FILL
  6
CONTINUOUS
 62
               7
  5
67
 10
-77.308657048910007
 20
7.7499999999999858
 30
0.0
 11
-72.689854895393026
 21
15.749999999999986
 31
0.0
  0
LINE
  8
PATTERN_FILL
  6
CONTINUOUS
 62
               7
  5
68
 10
-66.916352203496743
 20
25.749999999999986
 30
0.0
 11
-53.81078451028209
 21
48.449509106681077
 31
0.0
  0
LINE
  8
PATTERN_FILL
  6
CONTINUOUS
 62
               7
  5
69
 10
-74.808657048910007
 20
7.7499999999999858
 30
0.0
 11
-70.189854895393026
 21
15.749999999999986
 31
0.0
  0
LINE
  8
PATTERN_FILL
  6
CONTINUOUS
 62
               7
  5
6A
 10
-64.416352203496743
 20
25.749999999999986
 30
0.0
 11
-53.36929130971312
 21
44.884070742340569
 31
0.0
  0
LINE
  8
PATTERN_FILL
  6
CONTINUOUS
 62
               7
  5
6B
 10
-72.308657048910007
 20
7.7499999999999858
 30
0.0
 11
-67.689854895393026
 21
15.749999999999986
 31
0.0
  0
LINE
  8
PATTERN_FILL
  6
CONTINUOUS
 62
               7
  5
6C
 10
-61.916352203496743
 20
25.749999999999986
 30
0.0
 11
-52.927798109144035
 21
41.318632378000103
 31
0.0
  0
LINE
  8
PATTERN_FILL
  6
CONTINUOUS
 62
               7
  5
6D
 10
-69.808657048910007
 20
7.7499999999999858
 30
0.0
 11
-65.189854895393026
 21
15.749999999999986
 31
0.0
  0
LINE
  8
PATTERN_FILL
  6
CONTINUOUS
 62
               7
  5
6E
 10
-59.416352203496743
 20
25.749999999999986
 30
0.0
 11
-52.486304908575065
 21
37.753194013659623
 31
0.0
  0
LINE
  8
PATTERN_FILL
  6
CONTINUOUS
 62
               7
  5
6F
 10
-67.308657048910007
 20
7.7499999999999858
 30
0.0
 11
-62.689854895393026
 21
15.749999999999986
 31
0.0
  0
LINE
  8
PATTERN_FILL
  6
CONTINUOUS
 62
               7
  5
70
 10
-56.916352203496743
 20
25.749999999999986
 30
0.0
 11
-52.044811708006094
 21
34.187755649319158
 31
0.0
  0
LINE
  8
PATTERN_FILL
  6
CONTINUOUS
 62
               7
  5
71
 10
-64.808657048910007
 20
7.7499999999999858
 30
0.0
 11
-60.189854895393026
 21
15.749999999999986
 31
0.0
  0
LINE
  8
PATTERN_FILL
  6
CONTINUOUS
 62
               7
  5
72
 10
-54.416352203496743
 20
25.749999999999986
 30
0.0
 11
-51.60331850743701
 21
30.622317284978678
 31
0.0
  0
LINE
  8
PATTERN_FILL
  6
CONTINUOUS
 62
               7
  5
73
 10
-62.308657048910007
 20
7.7499999999999858
 30
0.0
 11
-57.689854895393026
 21
15.749999999999986
 31
0.0
  0
LINE
  8
PATTERN_FILL
  6
CONTINUOUS
 62
               7
  5
74
 10
-51.916352203496743
 20
25.749999999999986
 30
0.0
 11
-51.161825306868039
 21
27.056878920638198
 31
0.0
  0
LINE
  8
PATTERN_FILL
  6
CONTINUOUS
 62
               7
  5
75
 10
-59.808657048910007
 20
7.7499999999999858
 30
0.0
 11
-55.189854895393026
 21
15.749999999999986
 31
0.0
  0
LINE
  8
PATTERN_FILL
  6
CONTINUOUS
 62
               7
  5
76
 10
-57.308657048910007
 20
7.7499999999999858
 30
0.0
 11
-52.689854895393026
 21
15.749999999999986
 31
0.0
  0
LINE
  8
PATTERN_FILL
  6
CONTINUOUS
 62
               7
  5
77
 10
-54.808657048910007
 20
7.7499999999999858
 30
0.0
 11
-53.138372866657463
 21
10.643017066740143
 31
0.0
  0
LINE
  8
PATTERN_FILL
  6
CONTINUOUS
 62
               7
  5
78
 10
-55.045766061164343
 20
58.423050250901042
 30
0.0
 11
-58.698632201955846
 21
64.749999999999986
 31
0.0
  0
LINE
  8
PATTERN_FILL
  6
CONTINUOUS
 62
               7
  5
79
 10
-54.363191095685195
 20
52.910668711794415
 30
0.0
 11
-61.198632201955846
 21
64.749999999999986
 31
0.0
  0
LINE
  8
PATTERN_FILL
  6
CONTINUOUS
 62
               7
  5
7A
 10
-53.680616130206047
 20
47.398287172687773
 30
0.0
 11
-63.698632201955846
 21
64.749999999999986
 31
0.0
  0
LINE
  8
PATTERN_FILL
  6
CONTINUOUS
 62
               7
  5
7B
 10
-52.998041164726899
 20
41.885905633581118
 30
0.0
 11
-66.198632201955846
 21
64.749999999999986
 31
0.0
  0
LINE
  8
PATTERN_FILL
  6
CONTINUOUS
 62
               7
  5
7C
 10
-52.315466199247751
 20
36.373524094474462
 30
0.0
 11
-68.698632201955846
 21
64.749999999999986
 31
0.0
  0
LINE
  8
PATTERN_FILL
  6
CONTINUOUS
 62
               7
  5
7D
 10
-51.632891233768717
 20
30.861142555367834
 30
0.0
 11
-71.198632201955846
 21
64.749999999999986
 31
0.0
  0
LINE
  8
PATTERN_FILL
  6
CONTINUOUS
 62
               7
  5
7E
 10
-51.181971703560478
 20
25.749999999999986
 30
0.0
 11
-73.698632201955846
 21
64.749999999999986
 31
0.0
  0
LINE
  8
PATTERN_FILL
  6
CONTINUOUS
 62
               7
  5
7F
 10
-53.681971703560478
 20
25.749999999999986
 30
0.0
 11
-76.198632201955846
 21
64.749999999999986
 31
0.0
  0
LINE
  8
PATTERN_FILL
  6
CONTINUOUS
 62
               7
  5
80
 10
-56.181971703560478
 20
25.749999999999986
 30
0.0
 11
-78.698632201955846
 21
64.749999999999986
 31
0.0
  0
LINE
  8
PATTERN_FILL
  6
CONTINUOUS
 62
               7
  5
81
 10
-52.572696813396149
 20
15.168425492830508
 30
0.0
 11
-52.908469011664195
 21
15.749999999999986
 31
0.0
  0
LINE
  8
PATTERN_FILL
  6
CONTINUOUS
 62
               7
  5
82
 10
-58.681971703560478
 20
25.749999999999986
 30
0.0
 11
-81.198632201955846
 21
64.749999999999986
 31
0.0
  0
LINE
  8
PATTERN_FILL
  6
CONTINUOUS
 62
               7
  5
83
 10
-53.01763150440236
 20
11.608947964781009
 30
0.0
 11
-55.408469011664195
 21
15.749999999999986
 31
0.0
  0
LINE
  8
PATTERN_FILL
  6
CONTINUOUS
 62
               7
  5
84
 10
-61.181971703560478
 20
25.749999999999986
 30
0.0
 11
-83.698632201955846
 21
64.749999999999986
 31
0.0
  0
LINE
  8
PATTERN_FILL
  6
CONTINUOUS
 62
               7
  5
85
 10
-53.462566195408456
 20
8.0494704367314682
 30
0.0
 11
-57.908469011664195
 21
15.749999999999986
 31
0.0
  0
LINE
  8
PATTERN_FILL
  6
CONTINUOUS
 62
               7
  5
86
 10
-63.681971703560478
 20
25.749999999999986
 30
0.0
 11
-86.198632201955846
 21
64.749999999999986
 31
0.0
  0
LINE
  8
PATTERN_FILL
  6
CONTINUOUS
 62
               7
  5
87
 10
-55.789666858147214
 20
7.7499999999999858
 30
0.0
 11
-60.408469011664195
 21
15.749999999999986
 31
0.0
  0
LINE
  8
PATTERN_FILL
  6
CONTINUOUS
 62
               7
  5
88
 10
-66.181971703560478
 20
25.749999999999986
 30
0.0
 11
-88.698632201955846
 21
64.749999999999986
 31
0.0
  0
LINE
  8
PATTERN_FILL
  6
CONTINUOUS
 62
               7
  5
89
 10
-58.289666858147214
 20
7.7499999999999858
 30
0.0
 11
-62.908469011664195
 21
15.749999999999986
 31
0.0
  0
LINE
  8
PATTERN_FILL
  6
CONTINUOUS
 62
               7
  5
8A
 10
-68.681971703560478
 20
25.749999999999986
 30
0.0
 11
-91.198632201955846
 21
64.749999999999986
 31
0.0
  0
LINE
  8
PATTERN_FILL
  6
CONTINUOUS
 62
               7
  5
8B
 10
-60.789666858147214
 20
7.7499999999999858
 30
0.0
 11
-65.408469011664195
 21
15.749999999999986
 31
0.0
  0
LINE
  8
PATTERN_FILL
  6
CONTINUOUS
 62
               7
  5
8C
 10
-71.181971703560478
 20
25.749999999999986
 30
0.0
 11
-93.178159931165013
 21
63.848515583059495
 31
0.0
  0
LINE
  8
PATTERN_FILL
  6
CONTINUOUS
 62
               7
  5
8D
 10
-63.289666858147214
 20
7.7499999999999858
 30
0.0
 11
-67.908469011664195
 21
15.749999999999986
 31
0.0
  0
LINE
  8
PATTERN_FILL
  6
CONTINUOUS
 62
               7
  5
8E
 10
-73.681971703560478
 20
25.749999999999986
 30
0.0
 11
-94.528905062123229
 21
61.857947759033252
 31
0.0
  0
LINE
  8
PATTERN_FILL
  6
CONTINUOUS
 62
               7
  5
8F
 10
-65.789666858147214
 20
7.7499999999999858
 30
0.0
 11
-70.408469011664195
 21
15.749999999999986
 31
0.0
  0
LINE
  8
PATTERN_FILL
  6
CONTINUOUS
 62
               7
  5
90
 10
-76.181971703560478
 20
25.749999999999986
 30
0.0
 11
-94.9703982626922
 21
58.292509394692786
 31
0.0
  0
LINE
  8
PATTERN_FILL
  6
CONTINUOUS
 62
               7
  5
91
 10
-68.289666858147214
 20
7.7499999999999858
 30
0.0
 11
-72.908469011664195
 21
15.749999999999986
 31
0.0
  0
LINE
  8
PATTERN_FILL
  6
CONTINUOUS
 62
               7
  5
92
 10
-78.681971703560478
 20
25.749999999999986
 30
0.0
 11
-95.411891463261284
 21
54.727071030352278
 31
0.0
  0
LINE
  8
PATTERN_FILL
  6
CONTINUOUS
 62
               7
  5
93
 10
-70.789666858147214
 20
7.7499999999999858
 30
0.0
 11
-75.408469011664195
 21
15.749999999999986
 31
0.0
  0
LINE
  8
PATTERN_FILL
  6
CONTINUOUS
 62
               7
  5
94
 10
-81.181971703560478
 20
25.749999999999972
 30
0.0
 11
-95.853384663830255
 21
51.161632666011783
 31
0.0
  0
LINE
  8
PATTERN_FILL
  6
CONTINUOUS
 62
               7
  5
95
 10
-73.289666858147214
 20
7.7499999999999858
 30
0.0
 11
-77.908469011664195
 21
15.749999999999986
 31
0.0
  0
LINE
  8
PATTERN_FILL
  6
CONTINUOUS
 62
               7
  5
96
 10
-83.681971703560478
 20
25.749999999999986
 30
0.0
 11
-96.294877864399226
 21
47.596194301671304
 31
0.0
  0
LINE
  8
PATTERN_FILL
  6
CONTINUOUS
 62
               7
  5
97
 10
-75.789666858147214
 20
7.7499999999999858
 30
0.0
 11
-80.408469011664195
 21
15.749999999999986
 31
0.0
  0
LINE
  8
PATTERN_FILL
  6
CONTINUOUS
 62
               7
  5
98
 10
-86.181971703560478
 20
25.749999999999986
 30
0.0
 11
-96.73637106496831
 21
44.030755937330838
 31
0.0
  0
LINE
  8
PATTERN_FILL
  6
CONTINUOUS
 62
               7
  5
99
 10
-78.289666858147214
 20
7.7499999999999858
 30
0.0
 11
-82.908469011664195
 21
15.749999999999986
 31
0.0
  0
LINE
  8
PATTERN_FILL
  6
CONTINUOUS
 62
               7
  5
9A
 10
-88.681971703560478
 20
25.749999999999986
 30
0.0
 11
-97.177864265537281
 21
40.465317572990315
 31
0.0
  0
LINE
  8
PATTERN_FILL
  6
CONTINUOUS
 62
               7
  5
9B
 10
-80.789666858147214
 20
7.7499999999999858
 30
0.0
 11
-85.408469011664309
 21
15.749999999999986
 31
0.0
  0
LINE
  8
PATTERN_FILL
  6
CONTINUOUS
 62
               7
  5
9C
 10
-91.181971703560478
 20
25.75
 30
0.0
 11
-97.619357466106251
 21
36.89987920864985
 31
0.0
  0
LINE
  8
PATTERN_FILL
  6
CONTINUOUS
 62
               7
  5
9D
 10
-83.289666858147214
 20
7.7499999999999858
 30
0.0
 11
-87.908469011664309
 21
15.749999999999986
 31
0.0
  0
LINE
  8
PATTERN_FILL
  6
CONTINUOUS
 62
               7
  5
9E
 10
-93.681971703560478
 20
25.749999999999986
 30
0.0
 11
-98.060850666675336
 21
33.334440844309356
 31
0.0
  0
LINE
  8
PATTERN_FILL
  6
CONTINUOUS
 62
               7
  5
9F
 10
-85.789666858147214
 20
7.7499999999999858
 30
0.0
 11
-90.408469011664195
 21
15.749999999999986
 31
0.0
  0
LINE
  8
PATTERN_FILL
  6
CONTINUOUS
 62
               7
  5
A0
 10
-96.181971703560478
 20
25.749999999999986
 30
0.0
 11
-98.502343867244306
 21
29.769002479968876
 31
0.0
  0
LINE
  8
PATTERN_FILL
  6
CONTINUOUS
 62
               7
  5
A1
 10
-88.289666858147214
 20
7.7499999999999858
 30
0.0
 11
-92.908469011664195
 21
15.749999999999986
 31
0.0
  0
LINE
  8
PATTERN_FILL
  6
CONTINUOUS
 62
               7
  5
A2
 10
-98.681971703560478
 20
25.749999999999986
 30
0.0
 11
-98.943837067813277
 21
26.20356411562841
 31
0.0
  0
LINE
  8
PATTERN_FILL
  6
CONTINUOUS
 62
               7
  5
A3
 10
-90.789666858147214
 20
7.7499999999999858
 30
0.0
 11
-95.408469011664195
 21
15.749999999999986
 31
0.0
  0
LINE
  8
PATTERN_FILL
  6
CONTINUOUS
 62
               7
  5
A4
 10
-93.289666858147214
 20
7.7499999999999858
 30
0.0
 11
-97.387125906767963
 21
14.847007254143776
 31
0.0
  0
LINE
  8
PATTERN_FILL
  6
CONTINUOUS
 62
               7
  5
A5
 10
-95.789666858147214
 20
7.7499999999999858
 30
0.0
 11
-96.696289576417442
 21
9.320316611340175
 31
0.0
  0
LINE
  8
PATTERN_FILL
  6
CONTINUOUS
 62
               7
  5
A6
 10
-98.70347526685903
 20
113.76101851542934
 30
0.0
 11
-90.108875211894954
 21
128.64730248136141
 31
0.0
  0
LINE
  8
PATTERN_FILL
  6
CONTINUOUS
 62
               7
  5
A7
 10
-98.977308310871834
 20
108.95659875148588
 30
0.0
 11
-86.08504216788215
 21
131.2866587358439
 31
0.0
  0
LINE
  8
PATTERN_FILL
  6
CONTINUOUS
 62
               7
  5
A8
 10
-98.548876020772312
 20
105.36853822661901
 30
0.0
 11
-82.763474457981673
 21
132.70965575124956
 31
0.0
  0
LINE
  8
PATTERN_FILL
  6
CONTINUOUS
 62
               7
  5
A9
 10
-97.764107370583432
 20
102.39767038201124
 30
0.0
 11
-79.798243108170666
 21
133.5154600863961
 31
0.0
  0
LINE
  8
PATTERN_FILL
  6
CONTINUOUS
 62
               7
  5
AA
 10
-96.734455543377138
 20
99.850952641916408
 30
0.0
 11
-77.070136213270942
 21
133.91055281791921
 31
0.0
  0
LINE
  8
PATTERN_FILL
  6
CONTINUOUS
 62
               7
  5
AB
 10
-95.484455543377138
 20
97.685889132455301
 30
0.0
 11
-74.521250987875376
 21
133.99522451204382
 31
0.0
  0
LINE
  8
PATTERN_FILL
  6
CONTINUOUS
 62
               7
  5
AC
 10
-94.193638798615851
 20
95.591522298720477
 30
0.0
 11
-72.118711680138247
 21
133.82641764130364
 31
0.0
  0
LINE
  8
PATTERN_FILL
  6
CONTINUOUS
 62
               7
  5
AD
 10
-92.720097648010849
 20
93.813643419689626
 30
0.0
 11
-69.842252830743135
 21
133.43923301087358
 31
0.0
  0
LINE
  8
PATTERN_FILL
  6
CONTINUOUS
 62
               7
  5
AE
 10
-91.133431522070239
 20
92.231702745545093
 30
0.0
 11
-67.678918956683859
 21
132.85611017555686
 31
0.0
  0
LINE
  8
PATTERN_FILL
  6
CONTINUOUS
 62
               7
  5
AF
 10
-89.441858845668733
 20
90.831465546845479
 30
0.0
 11
-65.620491633085251
 21
132.09128386479557
 31
0.0
  0
LINE
  8
PATTERN_FILL
  6
CONTINUOUS
 62
               7
  5
B0
 10
-87.650193666009912
 20
89.60459364924445
 30
0.0
 11
-63.662156812744072
 21
131.15309225293549
 31
0.0
  0
LINE
  8
PATTERN_FILL
  6
CONTINUOUS
 62
               7
  5
B1
 10
-85.76052505761136
 20
88.547468669536542
 30
0.0
 11
-61.801825421142738
 21
130.04515372318212
 31
0.0
  0
LINE
  8
PATTERN_FILL
  6
CONTINUOUS
 62
               7
  5
B2
 10
-83.772489583639597
 20
87.660720098782733
 30
0.0
 11
-60.039860895114501
 21
128.76683878447494
 31
0.0
  0
LINE
  8
PATTERN_FILL
  6
CONTINUOUS
 62
               7
  5
B3
 10
-81.683224851615776
 20
86.949305746187449
 30
0.0
 11
-58.379125627138208
 21
127.31318962760905
 31
0.0
  0
LINE
  8
PATTERN_FILL
  6
CONTINUOUS
 62
               7
  5
B4
 10
-79.486989606195223
 20
86.423169757707242
 30
0.0
 11
-56.825360872558761
 21
125.67426210662835
 31
0.0
  0
LINE
  8
PATTERN_FILL
  6
CONTINUOUS
 62
               7
  5
B5
 10
-77.174324382967896
 20
86.098696406312271
 30
0.0
 11
-55.388026095786088
 21
123.8336719485621
 31
0.0
  0
LINE
  8
PATTERN_FILL
  6
CONTINUOUS
 62
               7
  5
B6
 10
-74.730432709710456
 20
86.001513933666487
 30
0.0
 11
-54.081917769043528
 21
121.76579091174681
 31
0.0
  0
LINE
  8
PATTERN_FILL
  6
CONTINUOUS
 62
               7
  5
B7
 10
-72.132015638162855
 20
86.171977301919199
 30
0.0
 11
-52.930334840591129
 21
119.43026403403302
 31
0.0
  0
LINE
  8
PATTERN_FILL
  6
CONTINUOUS
 62
               7
  5
B8
 10
-69.34054225212931
 20
86.676824015583421
 30
0.0
 11
-51.971808226624674
 21
116.76035381090763
 31
0.0
  0
LINE
  8
PATTERN_FILL
  6
CONTINUOUS
 62
               7
  5
B9
 10
-66.2856122243481
 20
87.63799101834617
 30
0.0
 11
-51.276738254405885
 21
113.63412329868389
 31
0.0
  0
LINE
  8
PATTERN_FILL
  6
CONTINUOUS
 62
               7
  5
BA
 10
-62.811356736217093
 20
89.325451023341756
 30
0.0
 11
-51.000993742536892
 21
109.78159978422723
 31
0.0
  0
LINE
  8
PATTERN_FILL
  6
CONTINUOUS
 62
               7
  5
BB
 10
-58.360140928572903
 20
92.705055938713102
 30
0.0
 11
-51.702209550181081
 21
104.23693135939475
 31
0.0
  0
LINE
  8
PATTERN_FILL
  6
CONTINUOUS
 62
               7
  5
BC
 10
-52.664790829424831
 20
118.78284870111388
 30
0.0
 11
-56.226225321952782
 21
124.95143419000048
 31
0.0
  0
LINE
  8
PATTERN_FILL
  6
CONTINUOUS
 62
               7
  5
BD
 10
-51.058170779721152
 20
111.66997412764617
 30
0.0
 11
-61.58284537165612
 21
129.89924525400664
 31
0.0
  0
LINE
  8
PATTERN_FILL
  6
CONTINUOUS
 62
               7
  5
BE
 10
-51.133661028214604
 20
107.47060005459043
 30
0.0
 11
-65.257355123162895
 21
131.93355581760147
 31
0.0
  0
LINE
  8
PATTERN_FILL
  6
CONTINUOUS
 62
               7
  5
BF
 10
-51.721650451599729
 20
104.15890059128451
 30
0.0
 11
-68.419365699777771
 21
133.08019177144638
 31
0.0
  0
LINE
  8
PATTERN_FILL
  6
CONTINUOUS
 62
               7
  5
C0
 10
-52.607766724982028
 20
101.36357197927406
 30
0.0
 11
-71.283249426395471
 21
133.71045687399578
 31
0.0
  0
LINE
  8
PATTERN_FILL
  6
CONTINUOUS
 62
               7
  5
C1
 10
-53.704201761717925
 20
98.932526151176987
 30
0.0
 11
-73.936814389659688
 21
133.9764391926318
 31
0.0
  0
LINE
  8
PATTERN_FILL
  6
CONTINUOUS
 62
               7
  5
C2
 10
-54.965077360033618
 20
96.786299730561424
 30
0.0
 11
-76.425938791343881
 21
133.9576021037862
 31
0.0
  0
LINE
  8
PATTERN_FILL
  6
CONTINUOUS
 62
               7
  5
C3
 10
-56.363328089230734
 20
94.878014016328891
 30
0.0
 11
-78.777688062146765
 21
133.70082430855757
 31
0.0
  0
LINE
  8
PATTERN_FILL
  6
CONTINUOUS
 62
               7
  5
C4
 10
-57.881950095799837
 20
93.178217470276522
 30
0.0
 11
-81.009066055577776
 21
133.23555734514906
 31
0.0
  0
LINE
  8
PATTERN_FILL
  6
CONTINUOUS
 62
               7
  5
C5
 10
-61.240818495234137
 20
90.335694156189888
 30
0.0
 11
-85.150197656143476
 21
131.74795364031348
 31
0.0
  0
LINE
  8
PATTERN_FILL
  6
CONTINUOUS
 62
               7
  5
C6
 10
-63.070577122953139
 20
89.174802046064642
 30
0.0
 11
-87.07043902842436
 21
130.74378224097751
 31
0.0
  0
LINE
  8
PATTERN_FILL
  6
CONTINUOUS
 62
               7
  5
C7
 10
-64.998193198453421
 20
88.183404007395424
 30
0.0
 11
-88.892822952924192
 21
129.57011677018573
 31
0.0
  0
LINE
  8
PATTERN_FILL
  6
CONTINUOUS
 62
               7
  5
C8
 10
-67.024976180890647
 20
87.363768089970492
 30
0.0
 11
-90.616039970486739
 21
128.22468917814939
 31
0.0
  0
LINE
  8
PATTERN_FILL
  6
CONTINUOUS
 62
               7
  5
C9
 10
-69.154838139043548
 20
86.722670195677253
 30
0.0
 11
-92.236178012334065
 21
126.70072356298182
 31
0.0
  0
LINE
  8
PATTERN_FILL
  6
CONTINUOUS
 62
               7
  5
CA
 10
-71.394829013905635
 20
86.272321180506921
 30
0.0
 11
-93.746187137471864
 21
124.9860090686909
 31
0.0
  0
LINE
  8
PATTERN_FILL
  6
CONTINUOUS
 62
               7
  5
CB
 10
-73.756224077339496
 20
86.032250388194441
 30
0.0
 11
-95.134792074038003
 21
123.06101635154231
 31
0.0
  0
LINE
  8
PATTERN_FILL
  6
CONTINUOUS
 62
               7
  5
CC
 10
-76.256610604889673
 20
86.032919873549943
 30
0.0
 11
-96.384405546487827
 21
120.89528335672578
 31
0.0
  0
LINE
  8
PATTERN_FILL
  6
CONTINUOUS
 62
               7
  5
CD
 10
-78.924072253328589
 20
86.322971956965247
 30
0.0
 11
-97.46694389804891
 21
118.4401677638492
 31
0.0
  0
LINE
  8
PATTERN_FILL
  6
CONTINUOUS
 62
               7
  5
CE
 10
-81.806534327331818
 20
86.985415701107101
 30
0.0
 11
-98.334481824045795
 21
115.61266051024658
 31
0.0
  0
LINE
  8
PATTERN_FILL
  6
CONTINUOUS
 62
               7
  5
CF
 10
-84.996892960507878
 20
88.181151929211737
 30
0.0
 11
-98.894123190869735
 21
112.25186077268079
 31
0.0
  0
LINE
  8
PATTERN_FILL
  6
CONTINUOUS
 62
               7
  5
D0
 10
-88.728407141466008
 20
90.314197060872957
 30
0.0
 11
-98.912609009911606
 21
107.95375213155843
 31
0.0
  0
LINE
  8
PATTERN_FILL
  6
CONTINUOUS
 62
               7
  5
D1
 10
-58.740818495234137
 20
90.335694156189888
 30
0.0
 11
-58.748729639061551
 21
90.349396659245073
 31
0.0
  0
LINE
  8
PATTERN_FILL
  6
CONTINUOUS
 62
               7
  5
D2
 10
-59.510041824958265
 20
91.668028045639559
 30
0.0
 11
-83.130974326419235
 21
132.5806832603248
 31
0.0
  0
LINE
  8
PATTERN_FILL
  6
CONTINUOUS
 62
               7
  5
D3
 10
-19.790873570753504
 20
59.742326114768716
 30
0.0
 11
-16.899691705101375
 21
64.749999999999986
 31
0.0
  0
LINE
  8
PATTERN_FILL
  6
CONTINUOUS
 62
               7
  5
D4
 10
-20.473448536232652
 20
54.22994457566206
 30
0.0
 11
-14.399691705101375
 21
64.749999999999986
 31
0.0
  0
LINE
  8
PATTERN_FILL
  6
CONTINUOUS
 62
               7
  5
D5
 10
-21.1560235017118
 20
48.717563036555433
 30
0.0
 11
-11.899691705101375
 21
64.749999999999986
 31
0.0
  0
LINE
  8
PATTERN_FILL
  6
CONTINUOUS
 62
               7
  5
D6
 10
-21.838598467190948
 20
43.205181497448805
 30
0.0
 11
-9.3996917051013753
 21
64.749999999999986
 31
0.0
  0
LINE
  8
PATTERN_FILL
  6
CONTINUOUS
 62
               7
  5
D7
 10
-22.521173432670096
 20
37.69279995834215
 30
0.0
 11
-6.8996917051013753
 21
64.749999999999986
 31
0.0
  0
LINE
  8
PATTERN_FILL
  6
CONTINUOUS
 62
               7
  5
D8
 10
-23.203748398149244
 20
32.180418419235551
 30
0.0
 11
-4.3996917051013753
 21
64.749999999999986
 31
0.0
  0
LINE
  8
PATTERN_FILL
  6
CONTINUOUS
 62
               7
  5
D9
 10
-23.886323363628392
 20
26.668036880128923
 30
0.0
 11
-1.8996917051013753
 21
64.749999999999986
 31
0.0
  0
LINE
  8
PATTERN_FILL
  6
CONTINUOUS
 62
               7
  5
DA
 10
-21.916352203496743
 20
25.749999999999986
 30
0.0
 11
0.6003082948986247
 21
64.749999999999986
 31
0.0
  0
LINE
  8
PATTERN_FILL
  6
CONTINUOUS
 62
               7
  5
DB
 10
-19.416352203496743
 20
25.749999999999986
 30
0.0
 11
3.1003082948986247
 21
64.749999999999986
 31
0.0
  0
LINE
  8
PATTERN_FILL
  6
CONTINUOUS
 62
               7
  5
DC
 10
-16.916352203496743
 20
25.749999999999986
 30
0.0
 11
5.6003082948986247
 21
64.749999999999986
 31
0.0
  0
LINE
  8
PATTERN_FILL
  6
CONTINUOUS
 62
               7
  5
DD
 10
-22.088854520680869
 20
12.460836165447247
 30
0.0
 11
-20.189854895393026
 21
15.749999999999986
 31
0.0
  0
LINE
  8
PATTERN_FILL
  6
CONTINUOUS
 62
               7
  5
DE
 10
-14.416352203496743
 20
25.749999999999986
 30
0.0
 11
8.1003082948986247
 21
64.749999999999986
 31
0.0
  0
LINE
  8
PATTERN_FILL
  6
CONTINUOUS
 62
               7
  5
DF
 10
-21.643919829674658
 20
8.9013586373977063
 30
0.0
 11
-17.689854895393026
 21
15.749999999999986
 31
0.0
  0
LINE
  8
PATTERN_FILL
  6
CONTINUOUS
 62
               7
  5
E0
 10
-11.916352203496743
 20
25.749999999999986
 30
0.0
 11
10.600308294898625
 21
64.749999999999986
 31
0.0
  0
LINE
  8
PATTERN_FILL
  6
CONTINUOUS
 62
               7
  5
E1
 10
-19.808657048910007
 20
7.7499999999999858
 30
0.0
 11
-15.189854895393026
 21
15.749999999999986
 31
0.0
  0
LINE
  8
PATTERN_FILL
  6
CONTINUOUS
 62
               7
  5
E2
 10
-9.4163522034967428
 20
25.749999999999986
 30
0.0
 11
13.100308294898625
 21
64.749999999999986
 31
0.0
  0
LINE
  8
PATTERN_FILL
  6
CONTINUOUS
 62
               7
  5
E3
 10
-17.308657048910007
 20
7.7499999999999858
 30
0.0
 11
-12.689854895393026
 21
15.749999999999986
 31
0.0
  0
LINE
  8
PATTERN_FILL
  6
CONTINUOUS
 62
               7
  5
E4
 10
-6.9163522034967428
 20
25.749999999999986
 30
0.0
 11
15.600308294898625
 21
64.749999999999986
 31
0.0
  0
LINE
  8
PATTERN_FILL
  6
CONTINUOUS
 62
               7
  5
E5
 10
-14.808657048910007
 20
7.7499999999999858
 30
0.0
 11
-10.189854895393026
 21
15.749999999999986
 31
0.0
  0
LINE
  8
PATTERN_FILL
  6
CONTINUOUS
 62
               7
  5
E6
 10
-4.4163522034967428
 20
25.749999999999986
 30
0.0
 11
17.839641327241154
 21
64.29851156816234
 31
0.0
  0
LINE
  8
PATTERN_FILL
  6
CONTINUOUS
 62
               7
  5
E7
 10
-12.308657048910007
 20
7.7499999999999858
 30
0.0
 11
-7.6898548953930259
 21
15.749999999999986
 31
0.0
  0
LINE
  8
PATTERN_FILL
  6
CONTINUOUS
 62
               7
  5
E8
 10
-1.9163522034967428
 20
25.749999999999986
 30
0.0
 11
19.254086746900427
 21
62.41827588062317
 31
0.0
  0
LINE
  8
PATTERN_FILL
  6
CONTINUOUS
 62
               7
  5
E9
 10
-9.8086570489100069
 20
7.7499999999999858
 30
0.0
 11
-5.1898548953930259
 21
15.749999999999986
 31
0.0
  0
LINE
  8
PATTERN_FILL
  6
CONTINUOUS
 62
               7
  5
EA
 10
0.5836477965032572
 20
25.749999999999986
 30
0.0
 11
19.864735888010884
 21
59.145824199702517
 31
0.0
  0
LINE
  8
PATTERN_FILL
  6
CONTINUOUS
 62
               7
  5
EB
 10
-7.3086570489100069
 20
7.7499999999999858
 30
0.0
 11
-2.6898548953930259
 21
15.749999999999986
 31
0.0
  0
LINE
  8
PATTERN_FILL
  6
CONTINUOUS
 62
               7
  5
EC
 10
3.0836477965032572
 20
25.749999999999986
 30
0.0
 11
20.306229088579855
 21
55.580385835362023
 31
0.0
  0
LINE
  8
PATTERN_FILL
  6
CONTINUOUS
 62
               7
  5
ED
 10
-4.8086570489100069
 20
7.7499999999999858
 30
0.0
 11
-0.1898548953930259
 21
15.749999999999986
 31
0.0
  0
LINE
  8
PATTERN_FILL
  6
CONTINUOUS
 62
               7
  5
EE
 10
5.5836477965032572
 20
25.749999999999986
 30
0.0
 11
20.747722289148939
 21
52.014947471021529
 31
0.0
  0
LINE
  8
PATTERN_FILL
  6
CONTINUOUS
 62
               7
  5
EF
 10
-2.3086570489100069
 20
7.7499999999999858
 30
0.0
 11
2.3101451046069741
 21
15.749999999999986
 31
0.0
  0
LINE
  8
PATTERN_FILL
  6
CONTINUOUS
 62
               7
  5
F0
 10
8.0836477965032572
 20
25.749999999999986
 30
0.0
 11
21.18921548971791
 21
48.449509106681077
 31
0.0
  0
LINE
  8
PATTERN_FILL
  6
CONTINUOUS
 62
               7
  5
F1
 10
0.1913429510899931
 20
7.7499999999999858
 30
0.0
 11
4.8101451046069741
 21
15.749999999999986
 31
0.0
  0
LINE
  8
PATTERN_FILL
  6
CONTINUOUS
 62
               7
  5
F2
 10
10.583647796503257
 20
25.749999999999986
 30
0.0
 11
21.63070869028688
 21
44.884070742340569
 31
0.0
  0
LINE
  8
PATTERN_FILL
  6
CONTINUOUS
 62
               7
  5
F3
 10
2.6913429510899931
 20
7.7499999999999858
 30
0.0
 11
7.3101451046069741
 21
15.749999999999986
 31
0.0
  0
LINE
  8
PATTERN_FILL
  6
CONTINUOUS
 62
               7
  5
F4
 10
13.083647796503257
 20
25.749999999999986
 30
0.0
 11
22.072201890855965
 21
41.318632378000103
 31
0.0
  0
LINE
  8
PATTERN_FILL
  6
CONTINUOUS
 62
               7
  5
F5
 10
5.1913429510899931
 20
7.7499999999999858
 30
0.0
 11
9.8101451046069741
 21
15.749999999999986
 31
0.0
  0
LINE
  8
PATTERN_FILL
  6
CONTINUOUS
 62
               7
  5
F6
 10
15.583647796503257
 20
25.749999999999986
 30
0.0
 11
22.513695091424935
 21
37.753194013659623
 31
0.0
  0
LINE
  8
PATTERN_FILL
  6
CONTINUOUS
 62
               7
  5
F7
 10
7.6913429510899931
 20
7.7499999999999858
 30
0.0
 11
12.310145104606974
 21
15.749999999999986
 31
0.0
  0
LINE
  8
PATTERN_FILL
  6
CONTINUOUS
 62
               7
  5
F8
 10
18.083647796503257
 20
25.749999999999986
 30
0.0
 11
22.955188291993906
 21
34.187755649319158
 31
0.0
  0
LINE
  8
PATTERN_FILL
  6
CONTINUOUS
 62
               7
  5
F9
 10
10.191342951089993
 20
7.7499999999999858
 30
0.0
 11
14.810145104606974
 21
15.749999999999986
 31
0.0
  0
LINE
  8
PATTERN_FILL
  6
CONTINUOUS
 62
               7
  5
FA
 10
20.583647796503257
 20
25.749999999999986
 30
0.0
 11
23.39668149256299
 21
30.622317284978678
 31
0.0
  0
LINE
  8
PATTERN_FILL
  6
CONTINUOUS
 62
               7
  5
FB
 10
12.691342951089993
 20
7.7499999999999858
 30
0.0
 11
17.310145104606974
 21
15.749999999999986
 31
0.0
  0
LINE
  8
PATTERN_FILL
  6
CONTINUOUS
 62
               7
  5
FC
 10
23.083647796503257
 20
25.749999999999986
 30
0.0
 11
23.838174693131961
 21
27.056878920638198
 31
0.0
  0
LINE
  8
PATTERN_FILL
  6
CONTINUOUS
 62
               7
  5
FD
 10
15.191342951089993
 20
7.7499999999999858
 30
0.0
 11
19.810145104606974
 21
15.749999999999986
 31
0.0
  0
LINE
  8
PATTERN_FILL
  6
CONTINUOUS
 62
               7
  5
FE
 10
17.691342951089993
 20
7.7499999999999858
 30
0.0
 11
22.310145104606974
 21
15.749999999999986
 31
0.0
  0
LINE
  8
PATTERN_FILL
  6
CONTINUOUS
 62
               7
  5
FF
 10
20.191342951089993
 20
7.7499999999999858
 30
0.0
 11
21.861627133342537
 21
10.643017066740143
 31
0.0
  0
LINE
  8
PATTERN_FILL
  6
CONTINUOUS
 62
               7
  5
100
 10
19.954233938835657
 20
58.423050250901042
 30
0.0
 11
16.301367798044154
 21
64.749999999999986
 31
0.0
  0
LINE
  8
PATTERN_FILL
  6
CONTINUOUS
 62
               7
  5
101
 10
20.636808904314805
 20
52.910668711794415
 30
0.0
 11
13.801367798044154
 21
64.749999999999986
 31
0.0
  0
LINE
  8
PATTERN_FILL
  6
CONTINUOUS
 62
               7
  5
102
 10
21.319383869793953
 20
47.398287172687773
 30
0.0
 11
11.301367798044154
 21
64.749999999999986
 31
0.0
  0
LINE
  8
PATTERN_FILL
  6
CONTINUOUS
 62
               7
  5
103
 10
22.001958835273101
 20
41.885905633581118
 30
0.0
 11
8.8013677980441543
 21
64.749999999999986
 31
0.0
  0
LINE
  8
PATTERN_FILL
  6
CONTINUOUS
 62
               7
  5
104
 10
22.684533800752249
 20
36.373524094474462
 30
0.0
 11
6.3013677980441543
 21
64.749999999999986
 31
0.0
  0
LINE
  8
PATTERN_FILL
  6
CONTINUOUS
 62
               7
  5
105
 10
23.367108766231283
 20
30.861142555367834
 30
0.0
 11
3.8013677980441543
 21
64.749999999999986
 31
0.0
  0
LINE
  8
PATTERN_FILL
  6
CONTINUOUS
 62
               7
  5
106
 10
23.818028296439522
 20
25.749999999999986
 30
0.0
 11
1.3013677980441543
 21
64.749999999999986
 31
0.0
  0
LINE
  8
PATTERN_FILL
  6
CONTINUOUS
 62
               7
  5
107
 10
21.318028296439522
 20
25.749999999999986
 30
0.0
 11
-1.1986322019558457
 21
64.749999999999986
 31
0.0
  0
LINE
  8
PATTERN_FILL
  6
CONTINUOUS
 62
               7
  5
108
 10
18.818028296439522
 20
25.749999999999986
 30
0.0
 11
-3.6986322019558457
 21
64.749999999999986
 31
0.0
  0
LINE
  8
PATTERN_FILL
  6
CONTINUOUS
 62
               7
  5
109
 10
22.427303186603851
 20
15.168425492830508
 30
0.0
 11
22.091530988335805
 21
15.749999999999986
 31
0.0
  0
LINE
  8
PATTERN_FILL
  6
CONTINUOUS
 62
               7
  5
10A
 10
16.318028296439522
 20
25.749999999999986
 30
0.0
 11
-6.1986322019558457
 21
64.749999999999986
 31
0.0
  0
LINE
  8
PATTERN_FILL
  6
CONTINUOUS
 62
               7
  5
10B
 10
21.98236849559764
 20
11.608947964781009
 30
0.0
 11
19.591530988335805
 21
15.749999999999986
 31
0.0
  0
LINE
  8
PATTERN_FILL
  6
CONTINUOUS
 62
               7
  5
10C
 10
13.818028296439522
 20
25.749999999999986
 30
0.0
 11
-8.6986322019558457
 21
64.749999999999986
 31
0.0
  0
LINE
  8
PATTERN_FILL
  6
CONTINUOUS
 62
               7
  5
10D
 10
21.537433804591544
 20
8.0494704367314682
 30
0.0
 11
17.091530988335805
 21
15.749999999999986
 31
0.0
  0
LINE
  8
PATTERN_FILL
  6
CONTINUOUS
 62
               7
  5
10E
 10
11.318028296439522
 20
25.749999999999986
 30
0.0
 11
-11.198632201955846
 21
64.749999999999986
 31
0.0
  0
LINE
  8
PATTERN_FILL
  6
CONTINUOUS
 62
               7
  5
10F
 10
19.210333141852786
 20
7.7499999999999858
 30
0.0
 11
14.591530988335805
 21
15.749999999999986
 31
0.0
  0
LINE
  8
PATTERN_FILL
  6
CONTINUOUS
 62
               7
  5
110
 10
8.8180282964395218
 20
25.749999999999986
 30
0.0
 11
-13.698632201955846
 21
64.749999999999986
 31
0.0
  0
LINE
  8
PATTERN_FILL
  6
CONTINUOUS
 62
               7
  5
111
 10
16.710333141852786
 20
7.7499999999999858
 30
0.0
 11
12.091530988335805
 21
15.749999999999986
 31
0.0
  0
LINE
  8
PATTERN_FILL
  6
CONTINUOUS
 62
               7
  5
112
 10
6.3180282964395218
 20
25.749999999999986
 30
0.0
 11
-16.198632201955846
 21
64.749999999999986
 31
0.0
  0
LINE
  8
PATTERN_FILL
  6
CONTINUOUS
 62
               7
  5
113
 10
14.210333141852786
 20
7.7499999999999858
 30
0.0
 11
9.5915309883358049
 21
15.749999999999986
 31
0.0
  0
LINE
  8
PATTERN_FILL
  6
CONTINUOUS
 62
               7
  5
114
 10
3.8180282964395218
 20
25.749999999999986
 30
0.0
 11
-18.178159931165013
 21
63.848515583059495
 31
0.0
  0
LINE
  8
PATTERN_FILL
  6
CONTINUOUS
 62
               7
  5
115
 10
11.710333141852786
 20
7.7499999999999858
 30
0.0
 11
7.0915309883358049
 21
15.749999999999986
 31
0.0
  0
LINE
  8
PATTERN_FILL
  6
CONTINUOUS
 62
               7
  5
116
 10
1.3180282964395218
 20
25.749999999999986
 30
0.0
 11
-19.528905062123229
 21
61.857947759033252
 31
0.0
  0
LINE
  8
PATTERN_FILL
  6
CONTINUOUS
 62
               7
  5
117
 10
9.2103331418527858
 20
7.7499999999999858
 30
0.0
 11
4.5915309883358049
 21
15.749999999999986
 31
0.0
  0
LINE
  8
PATTERN_FILL
  6
CONTINUOUS
 62
               7
  5
118
 10
-1.1819717035604782
 20
25.749999999999986
 30
0.0
 11
-19.9703982626922
 21
58.292509394692786
 31
0.0
  0
LINE
  8
PATTERN_FILL
  6
CONTINUOUS
 62
               7
  5
119
 10
6.7103331418527858
 20
7.7499999999999858
 30
0.0
 11
2.0915309883358049
 21
15.749999999999986
 31
0.0
  0
LINE
  8
PATTERN_FILL
  6
CONTINUOUS
 62
               7
  5
11A
 10
-3.6819717035604782
 20
25.749999999999986
 30
0.0
 11
-20.411891463261284
 21
54.727071030352278
 31
0.0
  0
LINE
  8
PATTERN_FILL
  6
CONTINUOUS
 62
               7
  5
11B
 10
4.2103331418527858
 20
7.7499999999999858
 30
0.0
 11
-0.4084690116641951
 21
15.749999999999986
 31
0.0
  0
LINE
  8
PATTERN_FILL
  6
CONTINUOUS
 62
               7
  5
11C
 10
-6.1819717035604782
 20
25.749999999999972
 30
0.0
 11
-20.853384663830255
 21
51.161632666011783
 31
0.0
  0
LINE
  8
PATTERN_FILL
  6
CONTINUOUS
 62
               7
  5
11D
 10
1.7103331418527858
 20
7.7499999999999858
 30
0.0
 11
-2.9084690116641951
 21
15.749999999999986
 31
0.0
  0
LINE
  8
PATTERN_FILL
  6
CONTINUOUS
 62
               7
  5
11E
 10
-8.6819717035604782
 20
25.749999999999986
 30
0.0
 11
-21.294877864399226
 21
47.596194301671304
 31
0.0
  0
LINE
  8
PATTERN_FILL
  6
CONTINUOUS
 62
               7
  5
11F
 10
-0.7896668581472142
 20
7.7499999999999858
 30
0.0
 11
-5.4084690116641951
 21
15.749999999999986
 31
0.0
  0
LINE
  8
PATTERN_FILL
  6
CONTINUOUS
 62
               7
  5
120
 10
-11.181971703560478
 20
25.749999999999986
 30
0.0
 11
-21.73637106496831
 21
44.030755937330838
 31
0.0
  0
LINE
  8
PATTERN_FILL
  6
CONTINUOUS
 62
               7
  5
121
 10
-3.2896668581472142
 20
7.7499999999999858
 30
0.0
 11
-7.9084690116641951
 21
15.749999999999986
 31
0.0
  0
LINE
  8
PATTERN_FILL
  6
CONTINUOUS
 62
               7
  5
122
 10
-13.681971703560478
 20
25.749999999999986
 30
0.0
 11
-22.177864265537281
 21
40.465317572990315
 31
0.0
  0
LINE
  8
PATTERN_FILL
  6
CONTINUOUS
 62
               7
  5
123
 10
-5.7896668581472142
 20
7.7499999999999858
 30
0.0
 11
-10.408469011664309
 21
15.749999999999986
 31
0.0
  0
LINE
  8
PATTERN_FILL
  6
CONTINUOUS
 62
               7
  5
124
 10
-16.181971703560478
 20
25.75
 30
0.0
 11
-22.619357466106251
 21
36.89987920864985
 31
0.0
  0
LINE
  8
PATTERN_FILL
  6
CONTINUOUS
 62
               7
  5
125
 10
-8.2896668581472142
 20
7.7499999999999858
 30
0.0
 11
-12.908469011664309
 21
15.749999999999986
 31
0.0
  0
LINE
  8
PATTERN_FILL
  6
CONTINUOUS
 62
               7
  5
126
 10
-18.681971703560478
 20
25.749999999999986
 30
0.0
 11
-23.060850666675336
 21
33.334440844309356
 31
0.0
  0
LINE
  8
PATTERN_FILL
  6
CONTINUOUS
 62
               7
  5
127
 10
-10.789666858147214
 20
7.7499999999999858
 30
0.0
 11
-15.408469011664195
 21
15.749999999999986
 31
0.0
  0
LINE
  8
PATTERN_FILL
  6
CONTINUOUS
 62
               7
  5
128
 10
-21.181971703560478
 20
25.749999999999986
 30
0.0
 11
-23.502343867244306
 21
29.769002479968876
 31
0.0
  0
LINE
  8
PATTERN_FILL
  6
CONTINUOUS
 62
               7
  5
129
 10
-13.289666858147214
 20
7.7499999999999858
 30
0.0
 11
-17.908469011664195
 21
15.749999999999986
 31
0.0
  0
LINE
  8
PATTERN_FILL
  6
CONTINUOUS
 62
               7
  5
12A
 10
-23.681971703560478
 20
25.749999999999986
 30
0.0
 11
-23.943837067813277
 21
26.20356411562841
 31
0.0
  0
LINE
  8
PATTERN_FILL
  6
CONTINUOUS
 62
               7
  5
12B
 10
-15.789666858147214
 20
7.7499999999999858
 30
0.0
 11
-20.408469011664195
 21
15.749999999999986
 31
0.0
  0
LINE
  8
PATTERN_FILL
  6
CONTINUOUS
 62
               7
  5
12C
 10
-18.289666858147214
 20
7.7499999999999858
 30
0.0
 11
-22.387125906767963
 21
14.847007254143776
 31
0.0
  0
LINE
  8
PATTERN_FILL
  6
CONTINUOUS
 62
               7
  5
12D
 10
-20.789666858147214
 20
7.7499999999999858
 30
0.0
 11
-21.696289576417442
 21
9.320316611340175
 31
0.0
  0
LINE
  8
PATTERN_FILL
  6
CONTINUOUS
 62
               7
  5
12E
 10
80.209126429246496
 20
59.742326114768716
 30
0.0
 11
83.100308294898625
 21
64.749999999999986
 31
0.0
  0
LINE
  8
PATTERN_FILL
  6
CONTINUOUS
 62
               7
  5
12F
 10
79.526551463767348
 20
54.22994457566206
 30
0.0
 11
85.600308294898625
 21
64.749999999999986
 31
0.0
  0
LINE
  8
PATTERN_FILL
  6
CONTINUOUS
 62
               7
  5
130
 10
78.8439764982882
 20
48.717563036555433
 30
0.0
 11
88.100308294898625
 21
64.749999999999986
 31
0.0
  0
LINE
  8
PATTERN_FILL
  6
CONTINUOUS
 62
               7
  5
131
 10
78.161401532809052
 20
43.205181497448805
 30
0.0
 11
90.600308294898625
 21
64.749999999999986
 31
0.0
  0
LINE
  8
PATTERN_FILL
  6
CONTINUOUS
 62
               7
  5
132
 10
77.478826567329904
 20
37.69279995834215
 30
0.0
 11
93.100308294898625
 21
64.749999999999986
 31
0.0
  0
LINE
  8
PATTERN_FILL
  6
CONTINUOUS
 62
               7
  5
133
 10
76.796251601850756
 20
32.180418419235551
 30
0.0
 11
95.600308294898625
 21
64.749999999999986
 31
0.0
  0
LINE
  8
PATTERN_FILL
  6
CONTINUOUS
 62
               7
  5
134
 10
76.113676636371608
 20
26.668036880128923
 30
0.0
 11
98.100308294898625
 21
64.749999999999986
 31
0.0
  0
LINE
  8
PATTERN_FILL
  6
CONTINUOUS
 62
               7
  5
135
 10
78.083647796503257
 20
25.749999999999986
 30
0.0
 11
100.60030829489862
 21
64.749999999999986
 31
0.0
  0
LINE
  8
PATTERN_FILL
  6
CONTINUOUS
 62
               7
  5
136
 10
80.583647796503257
 20
25.749999999999986
 30
0.0
 11
103.10030829489862
 21
64.749999999999986
 31
0.0
  0
LINE
  8
PATTERN_FILL
  6
CONTINUOUS
 62
               7
  5
137
 10
83.083647796503257
 20
25.749999999999986
 30
0.0
 11
105.60030829489862
 21
64.749999999999986
 31
0.0
  0
LINE
  8
PATTERN_FILL
  6
CONTINUOUS
 62
               7
  5
138
 10
77.911145479319131
 20
12.460836165447247
 30
0.0
 11
79.810145104606974
 21
15.749999999999986
 31
0.0
  0
LINE
  8
PATTERN_FILL
  6
CONTINUOUS
 62
               7
  5
139
 10
85.583647796503257
 20
25.749999999999986
 30
0.0
 11
108.10030829489862
 21
64.749999999999986
 31
0.0
  0
LINE
  8
PATTERN_FILL
  6
CONTINUOUS
 62
               7
  5
13A
 10
78.356080170325342
 20
8.9013586373977063
 30
0.0
 11
82.310145104606974
 21
15.749999999999986
 31
0.0
  0
LINE
  8
PATTERN_FILL
  6
CONTINUOUS
 62
               7
  5
13B
 10
88.083647796503257
 20
25.749999999999986
 30
0.0
 11
110.60030829489862
 21
64.749999999999986
 31
0.0
  0
LINE
  8
PATTERN_FILL
  6
CONTINUOUS
 62
               7
  5
13C
 10
80.191342951089993
 20
7.7499999999999858
 30
0.0
 11
84.810145104606974
 21
15.749999999999986
 31
0.0
  0
LINE
  8
PATTERN_FILL
  6
CONTINUOUS
 62
               7
  5
13D
 10
90.583647796503257
 20
25.749999999999986
 30
0.0
 11
113.10030829489862
 21
64.749999999999986
 31
0.0
  0
LINE
  8
PATTERN_FILL
  6
CONTINUOUS
 62
               7
  5
13E
 10
82.691342951089993
 20
7.7499999999999858
 30
0.0
 11
87.310145104606974
 21
15.749999999999986
 31
0.0
  0
LINE
  8
PATTERN_FILL
  6
CONTINUOUS
 62
               7
  5
13F
 10
93.083647796503257
 20
25.749999999999986
 30
0.0
 11
115.60030829489862
 21
64.749999999999986
 31
0.0
  0
LINE
  8
PATTERN_FILL
  6
CONTINUOUS
 62
               7
  5
140
 10
85.191342951089993
 20
7.7499999999999858
 30
0.0
 11
89.810145104606974
 21
15.749999999999986
 31
0.0
  0
LINE
  8
PATTERN_FILL
  6
CONTINUOUS
 62
               7
  5
141
 10
95.583647796503257
 20
25.749999999999986
 30
0.0
 11
117.83964132724115
 21
64.29851156816234
 31
0.0
  0
LINE
  8
PATTERN_FILL
  6
CONTINUOUS
 62
               7
  5
142
 10
87.691342951089993
 20
7.7499999999999858
 30
0.0
 11
92.310145104606974
 21
15.749999999999986
 31
0.0
  0
LINE
  8
PATTERN_FILL
  6
CONTINUOUS
 62
               7
  5
143
 10
98.083647796503257
 20
25.749999999999986
 30
0.0
 11
119.25408674690043
 21
62.41827588062317
 31
0.0
  0
LINE
  8
PATTERN_FILL
  6
CONTINUOUS
 62
               7
  5
144
 10
90.191342951089993
 20
7.7499999999999858
 30
0.0
 11
94.810145104606974
 21
15.749999999999986
 31
0.0
  0
LINE
  8
PATTERN_FILL
  6
CONTINUOUS
 62
               7
  5
145
 10
100.58364779650326
 20
25.749999999999986
 30
0.0
 11
119.86473588801088
 21
59.145824199702517
 31
0.0
  0
LINE
  8
PATTERN_FILL
  6
CONTINUOUS
 62
               7
  5
146
 10
92.691342951089993
 20
7.7499999999999858
 30
0.0
 11
97.310145104606974
 21
15.749999999999986
 31
0.0
  0
LINE
  8
PATTERN_FILL
  6
CONTINUOUS
 62
               7
  5
147
 10
103.08364779650326
 20
25.749999999999986
 30
0.0
 11
120.30622908857985
 21
55.580385835362023
 31
0.0
  0
LINE
  8
PATTERN_FILL
  6
CONTINUOUS
 62
               7
  5
148
 10
95.191342951089993
 20
7.7499999999999858
 30
0.0
 11
99.810145104606974
 21
15.749999999999986
 31
0.0
  0
LINE
  8
PATTERN_FILL
  6
CONTINUOUS
 62
               7
  5
149
 10
105.58364779650326
 20
25.749999999999986
 30
0.0
 11
120.74772228914894
 21
52.014947471021529
 31
0.0
  0
LINE
  8
PATTERN_FILL
  6
CONTINUOUS
 62
               7
  5
14A
 10
97.691342951089993
 20
7.7499999999999858
 30
0.0
 11
102.31014510460697
 21
15.749999999999986
 31
0.0
  0
LINE
  8
PATTERN_FILL
  6
CONTINUOUS
 62
               7
  5
14B
 10
108.08364779650326
 20
25.749999999999986
 30
0.0
 11
121.18921548971791
 21
48.449509106681077
 31
0.0
  0
LINE
  8
PATTERN_FILL
  6
CONTINUOUS
 62
               7
  5
14C
 10
100.19134295108999
 20
7.7499999999999858
 30
0.0
 11
104.81014510460697
 21
15.749999999999986
 31
0.0
  0
LINE
  8
PATTERN_FILL
  6
CONTINUOUS
 62
               7
  5
14D
 10
110.58364779650326
 20
25.749999999999986
 30
0.0
 11
121.63070869028688
 21
44.884070742340569
 31
0.0
  0
LINE
  8
PATTERN_FILL
  6
CONTINUOUS
 62
               7
  5
14E
 10
102.69134295108999
 20
7.7499999999999858
 30
0.0
 11
107.31014510460697
 21
15.749999999999986
 31
0.0
  0
LINE
  8
PATTERN_FILL
  6
CONTINUOUS
 62
               7
  5
14F
 10
113.08364779650326
 20
25.749999999999986
 30
0.0
 11
122.07220189085596
 21
41.318632378000103
 31
0.0
  0
LINE
  8
PATTERN_FILL
  6
CONTINUOUS
 62
               7
  5
150
 10
105.19134295108999
 20
7.7499999999999858
 30
0.0
 11
109.81014510460697
 21
15.749999999999986
 31
0.0
  0
LINE
  8
PATTERN_FILL
  6
CONTINUOUS
 62
               7
  5
151
 10
115.58364779650326
 20
25.749999999999986
 30
0.0
 11
122.51369509142494
 21
37.753194013659623
 31
0.0
  0
LINE
  8
PATTERN_FILL
  6
CONTINUOUS
 62
               7
  5
152
 10
107.69134295108999
 20
7.7499999999999858
 30
0.0
 11
112.31014510460697
 21
15.749999999999986
 31
0.0
  0
LINE
  8
PATTERN_FILL
  6
CONTINUOUS
 62
               7
  5
153
 10
118.08364779650326
 20
25.749999999999986
 30
0.0
 11
122.95518829199391
 21
34.187755649319158
 31
0.0
  0
LINE
  8
PATTERN_FILL
  6
CONTINUOUS
 62
               7
  5
154
 10
110.19134295108999
 20
7.7499999999999858
 30
0.0
 11
114.81014510460697
 21
15.749999999999986
 31
0.0
  0
LINE
  8
PATTERN_FILL
  6
CONTINUOUS
 62
               7
  5
155
 10
120.58364779650326
 20
25.749999999999986
 30
0.0
 11
123.39668149256299
 21
30.622317284978678
 31
0.0
  0
LINE
  8
PATTERN_FILL
  6
CONTINUOUS
 62
               7
  5
156
 10
112.69134295108999
 20
7.7499999999999858
 30
0.0
 11
117.31014510460697
 21
15.749999999999986
 31
0.0
  0
LINE
  8
PATTERN_FILL
  6
CONTINUOUS
 62
               7
  5
157
 10
123.08364779650326
 20
25.749999999999986
 30
0.0
 11
123.83817469313196
 21
27.056878920638198
 31
0.0
  0
LINE
  8
PATTERN_FILL
  6
CONTINUOUS
 62
               7
  5
158
 10
115.19134295108999
 20
7.7499999999999858
 30
0.0
 11
119.81014510460697
 21
15.749999999999986
 31
0.0
  0
LINE
  8
PATTERN_FILL
  6
CONTINUOUS
 62
               7
  5
159
 10
117.69134295108999
 20
7.7499999999999858
 30
0.0
 11
122.31014510460697
 21
15.749999999999986
 31
0.0
  0
LINE
  8
PATTERN_FILL
  6
CONTINUOUS
 62
               7
  5
15A
 10
120.19134295108999
 20
7.7499999999999858
 30
0.0
 11
121.86162713334254
 21
10.643017066740143
 31
0.0
  0
LINE
  8
PATTERN_FILL
  6
CONTINUOUS
 62
               7
  5
15B
 10
119.95423393883566
 20
58.423050250901042
 30
0.0
 11
116.30136779804415
 21
64.749999999999986
 31
0.0
  0
LINE
  8
PATTERN_FILL
  6
CONTINUOUS
 62
               7
  5
15C
 10
120.6368089043148
 20
52.910668711794415
 30
0.0
 11
113.80136779804415
 21
64.749999999999986
 31
0.0
  0
LINE
  8
PATTERN_FILL
  6
CONTINUOUS
 62
               7
  5
15D
 10
121.31938386979395
 20
47.398287172687773
 30
0.0
 11
111.30136779804415
 21
64.749999999999986
 31
0.0
  0
LINE
  8
PATTERN_FILL
  6
CONTINUOUS
 62
               7
  5
15E
 10
122.0019588352731
 20
41.885905633581118
 30
0.0
 11
108.80136779804415
 21
64.749999999999986
 31
0.0
  0
LINE
  8
PATTERN_FILL
  6
CONTINUOUS
 62
               7
  5
15F
 10
122.68453380075225
 20
36.373524094474462
 30
0.0
 11
106.30136779804415
 21
64.749999999999986
 31
0.0
  0
LINE
  8
PATTERN_FILL
  6
CONTINUOUS
 62
               7
  5
160
 10
123.36710876623128
 20
30.861142555367834
 30
0.0
 11
103.80136779804415
 21
64.749999999999986
 31
0.0
  0
LINE
  8
PATTERN_FILL
  6
CONTINUOUS
 62
               7
  5
161
 10
123.81802829643952
 20
25.749999999999986
 30
0.0
 11
101.30136779804415
 21
64.749999999999986
 31
0.0
  0
LINE
  8
PATTERN_FILL
  6
CONTINUOUS
 62
               7
  5
162
 10
121.31802829643952
 20
25.749999999999986
 30
0.0
 11
98.801367798044154
 21
64.749999999999986
 31
0.0
  0
LINE
  8
PATTERN_FILL
  6
CONTINUOUS
 62
               7
  5
163
 10
118.81802829643952
 20
25.749999999999986
 30
0.0
 11
96.301367798044154
 21
64.749999999999986
 31
0.0
  0
LINE
  8
PATTERN_FILL
  6
CONTINUOUS
 62
               7
  5
164
 10
122.42730318660385
 20
15.168425492830508
 30
0.0
 11
122.0915309883358
 21
15.749999999999986
 31
0.0
  0
LINE
  8
PATTERN_FILL
  6
CONTINUOUS
 62
               7
  5
165
 10
116.31802829643952
 20
25.749999999999986
 30
0.0
 11
93.801367798044154
 21
64.749999999999986
 31
0.0
  0
LINE
  8
PATTERN_FILL
  6
CONTINUOUS
 62
               7
  5
166
 10
121.98236849559764
 20
11.608947964781009
 30
0.0
 11
119.5915309883358
 21
15.749999999999986
 31
0.0
  0
LINE
  8
PATTERN_FILL
  6
CONTINUOUS
 62
               7
  5
167
 10
113.81802829643952
 20
25.749999999999986
 30
0.0
 11
91.301367798044154
 21
64.749999999999986
 31
0.0
  0
LINE
  8
PATTERN_FILL
  6
CONTINUOUS
 62
               7
  5
168
 10
121.53743380459154
 20
8.0494704367314682
 30
0.0
 11
117.0915309883358
 21
15.749999999999986
 31
0.0
  0
LINE
  8
PATTERN_FILL
  6
CONTINUOUS
 62
               7
  5
169
 10
111.31802829643952
 20
25.749999999999986
 30
0.0
 11
88.801367798044154
 21
64.749999999999986
 31
0.0
  0
LINE
  8
PATTERN_FILL
  6
CONTINUOUS
 62
               7
  5
16A
 10
119.21033314185279
 20
7.7499999999999858
 30
0.0
 11
114.5915309883358
 21
15.749999999999986
 31
0.0
  0
LINE
  8
PATTERN_FILL
  6
CONTINUOUS
 62
               7
  5
16B
 10
108.81802829643952
 20
25.749999999999986
 30
0.0
 11
86.301367798044154
 21
64.749999999999986
 31
0.0
  0
LINE
  8
PATTERN_FILL
  6
CONTINUOUS
 62
               7
  5
16C
 10
116.71033314185279
 20
7.7499999999999858
 30
0.0
 11
112.0915309883358
 21
15.749999999999986
 31
0.0
  0
LINE
  8
PATTERN_FILL
  6
CONTINUOUS
 62
               7
  5
16D
 10
106.31802829643952
 20
25.749999999999986
 30
0.0
 11
83.801367798044154
 21
64.749999999999986
 31
0.0
  0
LINE
  8
PATTERN_FILL
  6
CONTINUOUS
 62
               7
  5
16E
 10
114.21033314185279
 20
7.7499999999999858
 30
0.0
 11
109.5915309883358
 21
15.749999999999986
 31
0.0
  0
LINE
  8
PATTERN_FILL
  6
CONTINUOUS
 62
               7
  5
16F
 10
103.81802829643952
 20
25.749999999999986
 30
0.0
 11
81.821840068834987
 21
63.848515583059495
 31
0.0
  0
LINE
  8
PATTERN_FILL
  6
CONTINUOUS
 62
               7
  5
170
 10
111.71033314185279
 20
7.7499999999999858
 30
0.0
 11
107.0915309883358
 21
15.749999999999986
 31
0.0
  0
LINE
  8
PATTERN_FILL
  6
CONTINUOUS
 62
               7
  5
171
 10
101.31802829643952
 20
25.749999999999986
 30
0.0
 11
80.471094937876771
 21
61.857947759033252
 31
0.0
  0
LINE
  8
PATTERN_FILL
  6
CONTINUOUS
 62
               7
  5
172
 10
109.21033314185279
 20
7.7499999999999858
 30
0.0
 11
104.5915309883358
 21
15.749999999999986
 31
0.0
  0
LINE
  8
PATTERN_FILL
  6
CONTINUOUS
 62
               7
  5
173
 10
98.818028296439522
 20
25.749999999999986
 30
0.0
 11
80.0296017373078
 21
58.292509394692786
 31
0.0
  0
LINE
  8
PATTERN_FILL
  6
CONTINUOUS
 62
               7
  5
174
 10
106.71033314185279
 20
7.7499999999999858
 30
0.0
 11
102.0915309883358
 21
15.749999999999986
 31
0.0
  0
LINE
  8
PATTERN_FILL
  6
CONTINUOUS
 62
               7
  5
175
 10
96.318028296439522
 20
25.749999999999986
 30
0.0
 11
79.588108536738716
 21
54.727071030352278
 31
0.0
  0
LINE
  8
PATTERN_FILL
  6
CONTINUOUS
 62
               7
  5
176
 10
104.21033314185279
 20
7.7499999999999858
 30
0.0
 11
99.591530988335805
 21
15.749999999999986
 31
0.0
  0
LINE
  8
PATTERN_FILL
  6
CONTINUOUS
 62
               7
  5
177
 10
93.818028296439522
 20
25.749999999999972
 30
0.0
 11
79.146615336169745
 21
51.161632666011783
 31
0.0
  0
LINE
  8
PATTERN_FILL
  6
CONTINUOUS
 62
               7
  5
178
 10
101.71033314185279
 20
7.7499999999999858
 30
0.0
 11
97.091530988335805
 21
15.749999999999986
 31
0.0
  0
LINE
  8
PATTERN_FILL
  6
CONTINUOUS
 62
               7
  5
179
 10
91.318028296439522
 20
25.749999999999986
 30
0.0
 11
78.705122135600774
 21
47.596194301671304
 31
0.0
  0
LINE
  8
PATTERN_FILL
  6
CONTINUOUS
 62
               7
  5
17A
 10
99.210333141852786
 20
7.7499999999999858
 30
0.0
 11
94.591530988335805
 21
15.749999999999986
 31
0.0
  0
LINE
  8
PATTERN_FILL
  6
CONTINUOUS
 62
               7
  5
17B
 10
88.818028296439522
 20
25.749999999999986
 30
0.0
 11
78.26362893503169
 21
44.030755937330838
 31
0.0
  0
LINE
  8
PATTERN_FILL
  6
CONTINUOUS
 62
               7
  5
17C
 10
96.710333141852786
 20
7.7499999999999858
 30
0.0
 11
92.091530988335805
 21
15.749999999999986
 31
0.0
  0
LINE
  8
PATTERN_FILL
  6
CONTINUOUS
 62
               7
  5
17D
 10
86.318028296439522
 20
25.749999999999986
 30
0.0
 11
77.822135734462719
 21
40.465317572990315
 31
0.0
  0
LINE
  8
PATTERN_FILL
  6
CONTINUOUS
 62
               7
  5
17E
 10
94.210333141852786
 20
7.7499999999999858
 30
0.0
 11
89.591530988335691
 21
15.749999999999986
 31
0.0
  0
LINE
  8
PATTERN_FILL
  6
CONTINUOUS
 62
               7
  5
17F
 10
83.818028296439522
 20
25.75
 30
0.0
 11
77.380642533893749
 21
36.89987920864985
 31
0.0
  0
LINE
  8
PATTERN_FILL
  6
CONTINUOUS
 62
               7
  5
180
 10
91.710333141852786
 20
7.7499999999999858
 30
0.0
 11
87.091530988335691
 21
15.749999999999986
 31
0.0
  0
LINE
  8
PATTERN_FILL
  6
CONTINUOUS
 62
               7
  5
181
 10
81.318028296439522
 20
25.749999999999986
 30
0.0
 11
76.939149333324664
 21
33.334440844309356
 31
0.0
  0
LINE
  8
PATTERN_FILL
  6
CONTINUOUS
 62
               7
  5
182
 10
89.210333141852786
 20
7.7499999999999858
 30
0.0
 11
84.591530988335805
 21
15.749999999999986
 31
0.0
  0
LINE
  8
PATTERN_FILL
  6
CONTINUOUS
 62
               7
  5
183
 10
78.818028296439522
 20
25.749999999999986
 30
0.0
 11
76.497656132755694
 21
29.769002479968876
 31
0.0
  0
LINE
  8
PATTERN_FILL
  6
CONTINUOUS
 62
               7
  5
184
 10
86.710333141852786
 20
7.7499999999999858
 30
0.0
 11
82.091530988335805
 21
15.749999999999986
 31
0.0
  0
LINE
  8
PATTERN_FILL
  6
CONTINUOUS
 62
               7
  5
185
 10
76.318028296439522
 20
25.749999999999986
 30
0.0
 11
76.056162932186723
 21
26.20356411562841
 31
0.0
  0
LINE
  8
PATTERN_FILL
  6
CONTINUOUS
 62
               7
  5
186
 10
84.210333141852786
 20
7.7499999999999858
 30
0.0
 11
79.591530988335805
 21
15.749999999999986
 31
0.0
  0
LINE
  8
PATTERN_FILL
  6
CONTINUOUS
 62
               7
  5
187
 10
81.710333141852786
 20
7.7499999999999858
 30
0.0
 11
77.612874093232037
 21
14.847007254143776
 31
0.0
  0
LINE
  8
PATTERN_FILL
  6
CONTINUOUS
 62
               7
  5
188
 10
79.210333141852786
 20
7.7499999999999858
 30
0.0
 11
78.303710423582558
 21
9.320316611340175
 31
0.0
  0
LINE
  8
SPEC
  6
CONTINUOUS
 62
               7
  5
189
 10
-164.99999999999994
 20
243.53181499999999
 30
0.0
 11
130.00000000000011
 21
243.53181499999999
 31
0.0
  0
LINE
  8
SPEC
  6
CONTINUOUS
 62
               7
  5
18A
 10
-164.99999999999994
 20
236.03181499999999
 30
0.0
 11
130.00000000000011
 21
236.03181499999999
 31
0.0
  0
LINE
  8
SPEC
  6
CONTINUOUS
 62
               7
  5
18B
 10
-164.99999999999994
 20
206.03181499999999
 30
0.0
 11
130.00000000000011
 21
206.03181499999999
 31
0.0
  0
LINE
  8
SPEC
  6
CONTINUOUS
 62
               7
  5
18C
 10
-164.99999999999994
 20
213.53181499999999
 30
0.0
 11
130.00000000000011
 21
213.53181499999999
 31
0.0
  0
LINE
  8
SPEC
  6
CONTINUOUS
 62
               7
  5
18D
 10
-164.99999999999994
 20
221.03181499999999
 30
0.0
 11
130.00000000000011
 21
221.03181499999999
 31
0.0
  0
LINE
  8
SPEC
  6
CONTINUOUS
 62
               7
  5
18E
 10
-164.99999999999994
 20
198.53181499999999
 30
0.0
 11
130.00000000000011
 21
198.53181499999999
 31
0.0
  0
LINE
  8
SPEC
  6
CONTINUOUS
 62
               7
  5
18F
 10
-164.99999999999994
 20
191.03181499999999
 30
0.0
 11
130.00000000000011
 21
191.03181499999999
 31
0.0
  0
LINE
  8
SPEC
  6
CONTINUOUS
 62
               7
  5
190
 10
-164.99999999999994
 20
228.53181499999999
 30
0.0
 11
130.00000000000011
 21
228.53181499999999
 31
0.0
  0
LINE
  8
SPEC
  6
CONTINUOUS
 62
               7
  5
191
 10
-164.99999999999994
 20
243.53181499999999
 30
0.0
 11
-164.99999999999994
 21
168.53181499999997
 31
0.0
  0
TEXT
  8
SPEC
 62
               7
  5
192
 10
-162.49999999999994
 20
245.42935499999996
 30
0.0
 40
4.8865234375000002
  1
仕様
  7
_______
 11
-162.49999999999994
 21
251.20487843749996
 31
0.0
 73
               3
  0
LINE
  8
SPEC
  6
CONTINUOUS
 62
               7
  5
193
 10
-99.999999999999943
 20
243.53181499999999
 30
0.0
 11
-99.999999999999943
 21
168.53181499999997
 31
0.0
  0
LINE
  8
SPEC
  6
CONTINUOUS
 62
               7
  5
194
 10
130.00000000000011
 20
243.53181499999999
 30
0.0
 11
130.00000000000011
 21
168.53181499999997
 31
0.0
  0
TEXT
  8
SPEC
 62
               7
  5
195
 10
-163.16337126587297
 20
237.2758637391909
 30
0.0
 40
3.8006293402777782
  1
形式
  7
_______
 11
-163.16337126587297
 21
241.76793752391313
 31
0.0
 73
               3
  0
TEXT
  8
SPEC
 62
               7
  5
196
 10
-98.163371265872854
 20
237.2758637391909
 30
0.0
 40
3.8006293402777782
  1
ダイナミック型 
  7
_______
 11
-98.163371265872854
 21
241.76793752391313
 31
0.0
 73
               3
  0
TEXT
  8
SPEC
 62
               7
  5
197
 10
-163.16337126587297
 20
229.7758637391909
 30
0.0
 40
3.8006293402777782
  1
指向特性
  7
_______
 11
-163.16337126587297
 21
234.26793752391313
 31
0.0
 73
               3
  0
TEXT
  8
SPEC
 62
               7
  5
198
 10
-98.163371265872854
 20
229.7758637391909
 30
0.0
 40
3.8006293402777782
  1
カーディオイド
  7
_______
 11
-98.163371265872854
 21
234.26793752391313
 31
0.0
 73
               3
  0
TEXT
  8
SPEC
 62
               7
  5
199
 10
-163.16337126587297
 20
222.2758637391909
 30
0.0
 40
3.8006293402777782
  1
周波数特性
  7
_______
 11
-163.16337126587297
 21
226.76793752391313
 31
0.0
 73
               3
  0
TEXT
  8
SPEC
 62
               7
  5
19A
 10
-98.163371265872854
 20
222.2758637391909
 30
0.0
 40
3.8006293402777782
  1
20Hz～17kHz
  7
_______
 11
-98.163371265872854
 21
226.76793752391313
 31
0.0
 73
               3
  0
TEXT
  8
SPEC
 62
               7
  5
19B
 10
-163.16337126587297
 20
214.7758637391909
 30
0.0
 40
3.8006293402777782
  1
開回路感度
  7
_______
 11
-163.16337126587297
 21
219.26793752391313
 31
0.0
 73
               3
  0
TEXT
  8
SPEC
 62
               7
  5
19C
 10
-98.163371265872854
 20
214.7758637391909
 30
0.0
 40
3.8006293402777782
  1
-52dB re 1V/Pa
  7
_______
 11
-98.163371265872854
 21
219.26793752391313
 31
0.0
 73
               3
  0
TEXT
  8
SPEC
 62
               7
  5
19D
 10
-163.16337126587297
 20
207.2758637391909
 30
0.0
 40
3.8006293402777782
  1
最大音圧レベル
  7
_______
 11
-163.16337126587297
 21
211.76793752391313
 31
0.0
 73
               3
  0
TEXT
  8
SPEC
 62
               7
  5
19E
 10
-98.163371265872854
 20
207.2758637391909
 30
0.0
 40
3.8006293402777782
  1
160dB SPL(THD 0.5%%%)
  7
_______
 11
-98.163371265872854
 21
211.76793752391313
 31
0.0
 73
               3
  0
TEXT
  8
SPEC
 62
               7
  5
19F
 10
-163.16337126587297
 20
199.7758637391909
 30
0.0
 40
3.8006293402777782
  1
インピーダンス
  7
_______
 11
-163.16337126587297
 21
204.26793752391313
 31
0.0
 73
               3
  0
TEXT
  8
SPEC
 62
               7
  5
1A0
 10
-98.163371265872854
 20
199.7758637391909
 30
0.0
 40
3.8006293402777782
  1
600Ω以下
  7
_______
 11
-98.163371265872854
 21
204.26793752391313
 31
0.0
 73
               3
  0
TEXT
  8
SPEC
 62
               7
  5
1A1
 10
-163.16337126587297
 20
192.2758637391909
 30
0.0
 40
3.8006293402777782
  1
端子
  7
_______
 11
-163.16337126587297
 21
196.76793752391313
 31
0.0
 73
               3
  0
TEXT
  8
SPEC
 62
               7
  5
1A2
 10
-98.163371265872854
 20
192.2758637391909
 30
0.0
 40
3.8006293402777782
  1
XLR(3P)
  7
_______
 11
-98.163371265872854
 21
196.76793752391313
 31
0.0
 73
               3
  0
LINE
  8
SPEC
  6
CONTINUOUS
 62
               7
  5
1A3
 10
-164.99999999999994
 20
183.53181499999997
 30
0.0
 11
130.00000000000011
 21
183.53181499999997
 31
0.0
  0
LINE
  8
SPEC
  6
CONTINUOUS
 62
               7
  5
1A4
 10
-164.99999999999994
 20
176.03181499999997
 30
0.0
 11
130.00000000000011
 21
176.03181499999997
 31
0.0
  0
LINE
  8
SPEC
  6
CONTINUOUS
 62
               7
  5
1A5
 10
-164.99999999999994
 20
168.53181499999997
 30
0.0
 11
130.00000000000011
 21
168.53181499999997
 31
0.0
  0
TEXT
  8
SPEC
 62
               7
  5
1A6
 10
-98.245142154854591
 20
184.62431916109782
 30
0.0
 40
3.8006293402777782
  1
51×186mm
  7
_______
 11
-98.245142154854591
 21
189.11639294582005
 31
0.0
 73
               3
  0
TEXT
  8
SPEC
 62
               7
  5
1A7
 10
-98.096365258467074
 20
176.98832048644996
 30
0.0
 40
3.8006293402777782
  1
320g
  7
_______
 11
-98.096365258467074
 21
181.4803942711722
 31
0.0
 73
               3
  0
TEXT
  8
SPEC
 62
               7
  5
1A8
 10
-163.2451421548547
 20
184.62431916109782
 30
0.0
 40
3.8006293402777782
  1
寸法(φ×H)
  7
_______
 11
-163.2451421548547
 21
189.11639294582005
 31
0.0
 73
               3
  0
TEXT
  8
SPEC
 62
               7
  5
1A9
 10
-163.04462910531669
 20
169.75938177133992
 30
0.0
 40
3.8006293402777782
  1
付属品
  7
_______
 11
-163.04462910531669
 21
174.25145555606215
 31
0.0
 73
               3
  0
TEXT
  8
SPEC
 62
               7
  5
1AA
 10
-97.947588362079557
 20
169.35232181180217
 30
0.0
 40
3.8006293402777782
  1
マイクホルダー、マイクポーチ
  7
_______
 11
-97.947588362079557
 21
173.84439559652441
 31
0.0
 73
               3
  0
TEXT
  8
SPEC
 62
               7
  5
1AB
 10
-163.13888888888886
 20
177.10003812237275
 30
0.0
 40
3.8006293402777782
  1
質量
  7
_______
 11
-163.13888888888886
 21
181.59211190709499
 31
0.0
 73
               3
  0
TEXT
  8
DIMNSIONS
 62
               7
  5
1AC
 10
-39.999999999999986
 20
-232.81820499999995
 30
0.0
 40
4.8865234375000002
  1
(単位：mm)
  7
_______
 11
-39.999999999999986
 21
-227.04268156249995
 31
0.0
 73
               3
  0
LINE
  8
DIMNSIONS
  6
CONTINUOUS
 62
               7
  5
1AD
 10
-56.968777079742907
 20
91.968777079742992
 30
0.0
 11
-37.499999999999957
 21
72.499999999999986
 31
0.0
  0
LINE
  8
DIMNSIONS
  6
CONTINUOUS
 62
               7
  5
1AE
 10
-56.968777079742907
 20
91.968777079742992
 30
0.0
 11
-52.484783377372352
 21
89.379942108634765
 31
0.0
  0
LINE
  8
DIMNSIONS
  6
CONTINUOUS
 62
               7
  5
1AF
 10
-56.968777079742907
 20
91.968777079742992
 30
0.0
 11
-54.37994210863468
 21
87.484783377372437
 31
0.0
  0
LINE
  8
DIMNSIONS
  6
CONTINUOUS
 62
               7
  5
1B0
 10
-37.499999999999957
 20
72.499999999999986
 30
0.0
 11
-12.333333333333329
 21
72.499999999999986
 31
0.0
  0
TEXT
  8
DIMNSIONS
 62
               7
  5
1B1
 10
-33.499999999999957
 20
73.499999999999972
 30
0.0
 40
5.4294704861111116
  1
φ51.0
  7
_______
 11
-33.499999999999957
 21
79.917248263888865
 31
0.0
 73
               3
  0
LINE
  8
DIMNSIONS
  6
CONTINUOUS
 62
               7
  5
1B2
 10
-66.691495321057985
 20
-179.55850467894197
 30
0.0
 11
-43.749999999999957
 21
-202.5
 31
0.0
  0
LINE
  8
DIMNSIONS
  6
CONTINUOUS
 62
               7
  5
1B3
 10
-66.691495321057985
 20
-179.55850467894197
 30
0.0
 11
-62.207501618687431
 21
-182.14733965005018
 31
0.0
  0
LINE
  8
DIMNSIONS
  6
CONTINUOUS
 62
               7
  5
1B4
 10
-66.691495321057985
 20
-179.55850467894197
 30
0.0
 11
-64.102660349949758
 21
-184.04249838131253
 31
0.0
  0
LINE
  8
DIMNSIONS
  6
CONTINUOUS
 62
               7
  5
1B5
 10
-43.749999999999957
 20
-202.5
 30
0.0
 11
-18.583333333333329
 21
-202.5
 31
0.0
  0
TEXT
  8
DIMNSIONS
 62
               7
  5
1B6
 10
-39.749999999999957
 20
-201.5
 30
0.0
 40
5.4294704861111116
  1
φ23.5
  7
_______
 11
-39.749999999999957
 21
-195.08275173611113
 31
0.0
 73
               3
  0
LINE
  8
DIMNSIONS
  6
CONTINUOUS
 62
               7
  5
1B7
 10
-87.999999999999957
 20
-121.25000000000001
 30
0.0
 11
-120.74999999999996
 21
-121.25000000000001
 31
0.0
  0
LINE
  8
DIMNSIONS
  6
CONTINUOUS
 62
               7
  5
1B8
 10
-96.499999999999957
 20
64.749999999999986
 30
0.0
 11
-120.74999999999996
 21
64.749999999999986
 31
0.0
  0
LINE
  8
DIMNSIONS
  6
CONTINUOUS
 62
               7
  5
1B9
 10
-118.74999999999996
 20
-121.25000000000001
 30
0.0
 11
-118.74999999999996
 21
64.749999999999986
 31
0.0
  0
LINE
  8
DIMNSIONS
  6
CONTINUOUS
 62
               7
  5
1BA
 10
-118.74999999999996
 20
-121.25000000000001
 30
0.0
 11
-120.09007959030045
 21
-116.24875488281252
 31
0.0
  0
LINE
  8
DIMNSIONS
  6
CONTINUOUS
 62
               7
  5
1BB
 10
-118.74999999999996
 20
-121.25000000000001
 30
0.0
 11
-117.40992040969947
 21
-116.24875488281252
 31
0.0
  0
LINE
  8
DIMNSIONS
  6
CONTINUOUS
 62
               7
  5
1BC
 10
-118.74999999999996
 20
64.749999999999986
 30
0.0
 11
-117.40992040969947
 21
59.748754882812484
 31
0.0
  0
LINE
  8
DIMNSIONS
  6
CONTINUOUS
 62
               7
  5
1BD
 10
-118.74999999999996
 20
64.749999999999986
 30
0.0
 11
-120.09007959030045
 21
59.748754882812484
 31
0.0
  0
TEXT
  8
DIMNSIONS
 62
               7
  5
1BE
 10
-119.74999999999994
 20
-33.541666666666679
 30
0.0
 40
5.4294704861111116
  1
186
 50
90.0
  7
_______
 11
-126.16724826388884
 21
-33.541666666666679
 31
0.0
 73
               3
  0
LINE
  8
DIMNSIONS
  6
CONTINUOUS
 62
               7
  5
1BF
 10
-87.999999999999957
 20
-121.25000000000001
 30
0.0
 11
-108.24999999999996
 21
-121.25000000000001
 31
0.0
  0
LINE
  8
DIMNSIONS
  6
CONTINUOUS
 62
               7
  5
1C0
 10
-93.999999999999957
 20
-13.250000000000014
 30
0.0
 11
-108.24999999999996
 21
-13.250000000000014
 31
0.0
  0
LINE
  8
DIMNSIONS
  6
CONTINUOUS
 62
               7
  5
1C1
 10
-106.24999999999996
 20
-121.25000000000001
 30
0.0
 11
-106.24999999999996
 21
-13.250000000000014
 31
0.0
  0
LINE
  8
DIMNSIONS
  6
CONTINUOUS
 62
               7
  5
1C2
 10
-106.24999999999996
 20
-121.25000000000001
 30
0.0
 11
-107.59007959030045
 21
-116.24875488281252
 31
0.0
  0
LINE
  8
DIMNSIONS
  6
CONTINUOUS
 62
               7
  5
1C3
 10
-106.24999999999996
 20
-121.25000000000001
 30
0.0
 11
-104.90992040969947
 21
-116.24875488281252
 31
0.0
  0
LINE
  8
DIMNSIONS
  6
CONTINUOUS
 62
               7
  5
1C4
 10
-106.24999999999996
 20
-13.250000000000014
 30
0.0
 11
-104.90992040969947
 21
-18.251245117187516
 31
0.0
  0
LINE
  8
DIMNSIONS
  6
CONTINUOUS
 62
               7
  5
1C5
 10
-106.24999999999996
 20
-13.250000000000014
 30
0.0
 11
-107.59007959030045
 21
-18.251245117187516
 31
0.0
  0
TEXT
  8
DIMNSIONS
 62
               7
  5
1C6
 10
-107.24999999999994
 20
-72.541666666666671
 30
0.0
 40
5.4294704861111116
  1
108
 50
90.0
  7
_______
 11
-113.66724826388884
 21
-72.541666666666671
 31
0.0
 73
               3
  0
TEXT
  8
DATA
 62
               7
  5
1C7
 10
-174.99999999999997
 20
-246.34596277777777
 30
0.0
 40
3.8006293402777782
  1
※仕様及び外観は予告なく変更されることがあります。
  7
_______
 11
-174.99999999999997
 21
-236.91500010416667
 31
0.0
 73
               3
  0
TEXT
  8
DATA
 62
               7
  5
1C8
 10
-174.99999999999997
 20
-246.34596277777777
 30
0.0
 40
3.8006293402777782
  1
　また、同一商品でも若干の個体差があることがあります。ご了承ください。
  7
_______
 11
-174.99999999999997
 21
-241.85388899305556
 31
0.0
 73
               3
  0
TEXT
  8
DATA
 62
               7
  5
1C9
 10
99.999999999999972
 20
-235.09540499999997
 30
0.0
 40
4.8865234375000002
  1
D5 C
  7
_______
 11
99.999999999999972
 21
-229.31988156249997
 31
0.0
 73
               3
  0
TEXT
  8
DATA
 62
               7
  5
1CA
 10
99.999999999999972
 20
-220.59540499999997
 30
0.0
 40
4.8865234375000002
  1
AKG
  7
_______
 11
99.999999999999972
 21
-214.81988156249997
 31
0.0
 73
               3
  0
TEXT
  8
DATA
 62
               7
  5
1CB
 10
94.999999999999972
 20
-227.252985
 30
0.0
 40
3.2576874218749996
  1
ハンドヘルド型マイクロホン
  7
_______
 11
94.999999999999972
 21
-223.40262997812499
 31
0.0
 73
               3
  0
LINE
  8
DATA
  6
CONTINUOUS
 62
               7
  5
1CC
 10
-83.999999999999957
 20
-121.25000000000001
 30
0.0
 11
-86.749999999999957
 21
-118.25000000000001
 31
0.0
  0
LINE
  8
DATA
  6
CONTINUOUS
 62
               7
  5
1CD
 10
-65.999999999999957
 20
-121.25000000000001
 30
0.0
 11
-63.249999999999957
 21
-118.25000000000001
 31
0.0
  0
LINE
  8
DATA
  6
CONTINUOUS
 62
               7
  5
1CE
 10
-83.999999999999957
 20
-121.25000000000001
 30
0.0
 11
-65.999999999999957
 21
-121.25000000000001
 31
0.0
  0
LINE
  8
DATA
  6
CONTINUOUS
 62
               7
  5
1CF
 10
-86.749999999999957
 20
-118.25000000000001
 30
0.0
 11
-89.999999999999957
 21
-13.250000000000014
 31
0.0
  0
LINE
  8
DATA
  6
CONTINUOUS
 62
               7
  5
1D0
 10
-63.249999999999957
 20
-118.25000000000001
 30
0.0
 11
-59.999999999999957
 21
-13.250000000000014
 31
0.0
  0
LINE
  8
DATA
  6
CONTINUOUS
 62
               7
  5
1D1
 10
-89.999999999999957
 20
-13.250000000000014
 30
0.0
 11
-94.689999999999898
 21
0.1499999999999915
 31
0.0
  0
LINE
  8
DATA
  6
CONTINUOUS
 62
               7
  5
1D2
 10
-94.794999999999916
 20
0.4499999999999744
 30
0.0
 11
-96.999999999999957
 21
6.7499999999999858
 31
0.0
  0
LINE
  8
DATA
  6
CONTINUOUS
 62
               7
  5
1D3
 10
-59.999999999999957
 20
-13.250000000000014
 30
0.0
 11
-55.309999999999903
 21
0.1499999999999915
 31
0.0
  0
LINE
  8
DATA
  6
CONTINUOUS
 62
               7
  5
1D4
 10
-55.204999999999885
 20
0.4499999999999886
 30
0.0
 11
-52.999999999999957
 21
6.7499999999999858
 31
0.0
  0
LINE
  8
DATA
  6
CONTINUOUS
 62
               7
  5
1D5
 10
-55.204999999999885
 20
0.4499999999999886
 30
0.0
 11
-94.794999999999916
 21
0.4499999999999886
 31
0.0
  0
LINE
  8
DATA
  6
CONTINUOUS
 62
               7
  5
1D6
 10
-55.309999999999903
 20
0.1499999999999915
 30
0.0
 11
-94.689999999999898
 21
0.1499999999999915
 31
0.0
  0
LINE
  8
DATA
  6
CONTINUOUS
 62
               7
  5
1D7
 10
-89.999999999999957
 20
-13.250000000000014
 30
0.0
 11
-59.999999999999957
 21
-13.250000000000014
 31
0.0
  0
LINE
  8
DATA
  6
CONTINUOUS
 62
               7
  5
1D8
 10
-91.499999999999957
 20
0.1499999999999915
 30
0.0
 11
-91.499999999999957
 21
0.4499999999999886
 31
0.0
  0
LINE
  8
DATA
  6
CONTINUOUS
 62
               7
  5
1D9
 10
-58.499999999999957
 20
0.1499999999999915
 30
0.0
 11
-58.499999999999957
 21
0.4499999999999886
 31
0.0
  0
LINE
  8
DATA
  6
CONTINUOUS
 62
               7
  5
1DA
 10
-86.749999999999957
 20
-118.25000000000001
 30
0.0
 11
-63.249999999999957
 21
-118.25000000000001
 31
0.0
  0
TEXT
  8
DATA
 62
               7
  5
1DB
 10
-78.369779547914803
 20
-114.78050806853437
 30
0.0
 40
2.6604405381944445
  1
D5 C
  7
_______
 11
-78.369779547914803
 21
-111.63605641922881
 31
0.0
 73
               3
  0
CIRCLE
  8
DATA
  6
CONTINUOUS
 62
               7
  5
1DC
 10
-74.999999999999957
 20
-171.25
 30
0.0
 40
25.5
  0
ARC
  8
DATA
  6
CONTINUOUS
 62
               7
  5
1DD
 10
-74.999999999999957
 20
-171.25
 30
0.0
 40
8.9999999999999734
 50
232.28391039456591
 51
219.53449457892108
  0
CIRCLE
  8
DATA
  6
CONTINUOUS
 62
               7
  5
1DE
 10
-74.999999999999957
 20
-171.25
 30
0.0
 40
11.75
  0
CIRCLE
  8
DATA
  6
CONTINUOUS
 62
               7
  5
1DF
 10
-74.999999999999957
 20
-167.15000000000003
 30
0.0
 40
1.1749999999999545
  0
CIRCLE
  8
DATA
  6
CONTINUOUS
 62
               7
  5
1E0
 10
-79.09999999999998
 20
-170.74447766990176
 30
0.0
 40
1.1750000000000682
  0
CIRCLE
  8
DATA
  6
CONTINUOUS
 62
               7
  5
1E1
 10
-70.899999999999935
 20
-170.74447766990176
 30
0.0
 40
1.1749999999999545
  0
ARC
  8
DATA
  6
CONTINUOUS
 62
               7
  5
1E2
 10
-81.249999999999957
 20
-177.70157280533709
 30
0.0
 40
0.9999999999999518
 50
133.72307100195016
 51
318.0953339715349
  0
CIRCLE
  8
DATA
  6
CONTINUOUS
 62
               7
  5
1E3
 10
-74.999999999999957
 20
-32.250000000000014
 30
0.0
 40
9.0
  0
LINE
  8
DATA
  6
CONTINUOUS
 62
               7
  5
1E4
 10
-8.9999999999999574
 20
-121.25000000000001
 30
0.0
 11
-11.749999999999957
 21
-118.25000000000001
 31
0.0
  0
LINE
  8
DATA
  6
CONTINUOUS
 62
               7
  5
1E5
 10
9.0000000000000426
 20
-121.25000000000001
 30
0.0
 11
11.750000000000043
 21
-118.25000000000001
 31
0.0
  0
LINE
  8
DATA
  6
CONTINUOUS
 62
               7
  5
1E6
 10
-8.9999999999999574
 20
-121.25000000000001
 30
0.0
 11
9.0000000000000426
 21
-121.25000000000001
 31
0.0
  0
LINE
  8
DATA
  6
CONTINUOUS
 62
               7
  5
1E7
 10
-11.749999999999957
 20
-118.25000000000001
 30
0.0
 11
-14.133333333333283
 21
-41.249999999999162
 31
0.0
  0
LINE
  8
DATA
  6
CONTINUOUS
 62
               7
  5
1E8
 10
-14.690476190476105
 20
-23.250000000000867
 30
0.0
 11
-14.999999999999957
 21
-13.250000000000014
 31
0.0
  0
LINE
  8
DATA
  6
CONTINUOUS
 62
               7
  5
1E9
 10
11.750000000000043
 20
-118.25000000000001
 30
0.0
 11
15.000000000000043
 21
-13.250000000000014
 31
0.0
  0
LINE
  8
DATA
  6
CONTINUOUS
 62
               7
  5
1EA
 10
-14.999999999999957
 20
-13.250000000000014
 30
0.0
 11
-19.689999999999898
 21
0.1499999999999915
 31
0.0
  0
LINE
  8
DATA
  6
CONTINUOUS
 62
               7
  5
1EB
 10
-19.794999999999916
 20
0.4499999999999744
 30
0.0
 11
-21.999999999999957
 21
6.7499999999999858
 31
0.0
  0
LINE
  8
DATA
  6
CONTINUOUS
 62
               7
  5
1EC
 10
15.000000000000043
 20
-13.250000000000014
 30
0.0
 11
19.690000000000097
 21
0.1499999999999915
 31
0.0
  0
LINE
  8
DATA
  6
CONTINUOUS
 62
               7
  5
1ED
 10
19.795000000000115
 20
0.4499999999999886
 30
0.0
 11
22.000000000000043
 21
6.7499999999999858
 31
0.0
  0
LINE
  8
DATA
  6
CONTINUOUS
 62
               7
  5
1EE
 10
19.795000000000115
 20
0.4499999999999886
 30
0.0
 11
-19.794999999999916
 21
0.4499999999999886
 31
0.0
  0
LINE
  8
DATA
  6
CONTINUOUS
 62
               7
  5
1EF
 10
19.690000000000097
 20
0.1499999999999915
 30
0.0
 11
-19.689999999999898
 21
0.1499999999999915
 31
0.0
  0
LINE
  8
DATA
  6
CONTINUOUS
 62
               7
  5
1F0
 10
-14.999999999999957
 20
-13.250000000000014
 30
0.0
 11
15.000000000000043
 21
-13.250000000000014
 31
0.0
  0
LINE
  8
DATA
  6
CONTINUOUS
 62
               7
  5
1F1
 10
-16.499999999999957
 20
0.1499999999999915
 30
0.0
 11
-16.499999999999957
 21
0.4499999999999886
 31
0.0
  0
LINE
  8
DATA
  6
CONTINUOUS
 62
               7
  5
1F2
 10
16.500000000000043
 20
0.1499999999999915
 30
0.0
 11
16.500000000000043
 21
0.4499999999999886
 31
0.0
  0
LINE
  8
DATA
  6
CONTINUOUS
 62
               7
  5
1F3
 10
-11.749999999999957
 20
-118.25000000000001
 30
0.0
 11
11.750000000000043
 21
-118.25000000000001
 31
0.0
  0
LINE
  8
DATA
  6
CONTINUOUS
 62
               7
  5
1F4
 10
91.000000000000043
 20
-121.25000000000001
 30
0.0
 11
88.250000000000043
 21
-118.25000000000001
 31
0.0
  0
LINE
  8
DATA
  6
CONTINUOUS
 62
               7
  5
1F5
 10
109.00000000000004
 20
-121.25000000000001
 30
0.0
 11
111.75000000000004
 21
-118.25000000000001
 31
0.0
  0
LINE
  8
DATA
  6
CONTINUOUS
 62
               7
  5
1F6
 10
91.000000000000043
 20
-121.25000000000001
 30
0.0
 11
109.00000000000004
 21
-121.25000000000001
 31
0.0
  0
LINE
  8
DATA
  6
CONTINUOUS
 62
               7
  5
1F7
 10
88.250000000000043
 20
-118.25000000000001
 30
0.0
 11
85.000000000000043
 21
-13.250000000000014
 31
0.0
  0
LINE
  8
DATA
  6
CONTINUOUS
 62
               7
  5
1F8
 10
111.75000000000004
 20
-118.25000000000001
 30
0.0
 11
115.00000000000004
 21
-13.250000000000014
 31
0.0
  0
LINE
  8
DATA
  6
CONTINUOUS
 62
               7
  5
1F9
 10
85.000000000000043
 20
-13.250000000000014
 30
0.0
 11
80.310000000000102
 21
0.1499999999999915
 31
0.0
  0
LINE
  8
DATA
  6
CONTINUOUS
 62
               7
  5
1FA
 10
80.205000000000084
 20
0.4499999999999744
 30
0.0
 11
78.000000000000043
 21
6.7499999999999858
 31
0.0
  0
LINE
  8
DATA
  6
CONTINUOUS
 62
               7
  5
1FB
 10
115.00000000000004
 20
-13.250000000000014
 30
0.0
 11
119.6900000000001
 21
0.1499999999999915
 31
0.0
  0
LINE
  8
DATA
  6
CONTINUOUS
 62
               7
  5
1FC
 10
119.79500000000012
 20
0.4499999999999886
 30
0.0
 11
122.00000000000004
 21
6.7499999999999858
 31
0.0
  0
LINE
  8
DATA
  6
CONTINUOUS
 62
               7
  5
1FD
 10
119.79500000000012
 20
0.4499999999999886
 30
0.0
 11
80.205000000000084
 21
0.4499999999999886
 31
0.0
  0
LINE
  8
DATA
  6
CONTINUOUS
 62
               7
  5
1FE
 10
119.6900000000001
 20
0.1499999999999915
 30
0.0
 11
80.310000000000102
 21
0.1499999999999915
 31
0.0
  0
LINE
  8
DATA
  6
CONTINUOUS
 62
               7
  5
1FF
 10
85.000000000000043
 20
-13.250000000000014
 30
0.0
 11
115.00000000000004
 21
-13.250000000000014
 31
0.0
  0
LINE
  8
DATA
  6
CONTINUOUS
 62
               7
  5
200
 10
83.500000000000043
 20
0.1499999999999915
 30
0.0
 11
83.500000000000043
 21
0.4499999999999886
 31
0.0
  0
LINE
  8
DATA
  6
CONTINUOUS
 62
               7
  5
201
 10
116.50000000000004
 20
0.1499999999999915
 30
0.0
 11
116.50000000000004
 21
0.4499999999999886
 31
0.0
  0
LINE
  8
DATA
  6
CONTINUOUS
 62
               7
  5
202
 10
88.250000000000043
 20
-118.25000000000001
 30
0.0
 11
111.75000000000004
 21
-118.25000000000001
 31
0.0
  0
ARC
  8
DATA
  6
CONTINUOUS
 62
               7
  5
203
 10
-40.46901762279704
 20
-33.056529683789535
 30
0.0
 40
27.580812584420539
 50
342.71821139785595
 51
20.8275381452105
  0
LINE
  8
DATA
  6
CONTINUOUS
 62
               7
  5
204
 10
-13.734092357581702
 20
-39.834803348983129
 30
0.0
 11
-14.204475908281736
 21
-24.637796326365404
 31
0.0
  0
CIRCLE
  8
DATA
  6
CONTINUOUS
 62
               7
  5
205
 10
100.00000000000004
 20
-104.25000000000001
 30
0.0
 40
2.3500000000000227
  0
LINE
  8
DATA
  6
CONTINUOUS
 62
               7
  5
206
 10
98.750000000000043
 20
-104.25000000000001
 30
0.0
 11
101.25000000000004
 21
-104.25000000000001
 31
0.0
  0
LINE
  8
DATA
  6
CONTINUOUS
 62
               7
  5
207
 10
100.00000000000004
 20
-105.50000000000003
 30
0.0
 11
100.00000000000004
 21
-103.0
 31
0.0
  0
CIRCLE
  8
DATA
  6
CONTINUOUS
 62
               7
  5
208
 10
-74.999999999999957
 20
-171.25
 30
0.0
 40
23.5
  0
CIRCLE
  8
DATA
  6
CONTINUOUS
 62
               7
  5
209
 10
-74.999999999999957
 20
-171.25
 30
0.0
 40
15.0
  0
CIRCLE
  8
DATA
  6
CONTINUOUS
 62
               7
  5
20A
 10
-74.999999999999957
 20
109.99999999999999
 30
0.0
 40
25.5
  0
ARC
  8
DATA
  6
CONTINUOUS
 62
               7
  5
20B
 10
-74.999999999999957
 20
110.00000000000004
 30
0.0
 40
24.000000000000011
 50
215.3071914203523
 51
204.69280857965057
  0
CIRCLE
  8
DATA
  6
CONTINUOUS
 62
               7
  5
20C
 10
-74.999999999999957
 20
109.99999999999999
 30
0.0
 40
17.5
  0
CIRCLE
  8
DATA
  6
CONTINUOUS
 62
               7
  5
20D
 10
-74.999999999999957
 20
109.99999999999999
 30
0.0
 40
19.5
  0
LINE
  8
DATA
  6
CONTINUOUS
 62
               7
  5
20E
 10
-94.585561306829462
 20
96.128958644123756
 30
0.0
 11
-96.80545484454872
 21
99.973927038847464
 31
0.0
  0
LINE
  8
DATA
  6
CONTINUOUS
 62
               7
  5
20F
 10
-96.999999999999957
 20
6.7499999999999858
 30
0.0
 11
-52.999999999999957
 21
6.7499999999999858
 31
0.0
  0
LINE
  8
DATA
  6
CONTINUOUS
 62
               7
  5
210
 10
-96.999999999999957
 20
6.7499999999999858
 30
0.0
 11
-96.499999999999957
 21
7.7499999999999858
 31
0.0
  0
LINE
  8
DATA
  6
CONTINUOUS
 62
               7
  5
211
 10
-52.999999999999957
 20
6.7499999999999858
 30
0.0
 11
-53.499999999999957
 21
7.7499999999999858
 31
0.0
  0
LINE
  8
DATA
  6
CONTINUOUS
 62
               7
  5
212
 10
-53.499999999999957
 20
7.7499999999999858
 30
0.0
 11
-96.499999999999957
 21
7.7499999999999858
 31
0.0
  0
LINE
  8
DATA
  6
CONTINUOUS
 62
               7
  5
213
 10
-21.999999999999957
 20
6.7499999999999858
 30
0.0
 11
22.000000000000043
 21
6.7499999999999858
 31
0.0
  0
LINE
  8
DATA
  6
CONTINUOUS
 62
               7
  5
214
 10
-21.999999999999957
 20
6.7499999999999858
 30
0.0
 11
-21.499999999999957
 21
7.7499999999999858
 31
0.0
  0
LINE
  8
DATA
  6
CONTINUOUS
 62
               7
  5
215
 10
22.000000000000043
 20
6.7499999999999858
 30
0.0
 11
21.500000000000043
 21
7.7499999999999858
 31
0.0
  0
LINE
  8
DATA
  6
CONTINUOUS
 62
               7
  5
216
 10
21.500000000000043
 20
7.7499999999999858
 30
0.0
 11
-21.499999999999957
 21
7.7499999999999858
 31
0.0
  0
LINE
  8
DATA
  6
CONTINUOUS
 62
               7
  5
217
 10
78.000000000000043
 20
6.7499999999999858
 30
0.0
 11
122.00000000000004
 21
6.7499999999999858
 31
0.0
  0
LINE
  8
DATA
  6
CONTINUOUS
 62
               7
  5
218
 10
78.000000000000043
 20
6.7499999999999858
 30
0.0
 11
78.500000000000043
 21
7.7499999999999858
 31
0.0
  0
LINE
  8
DATA
  6
CONTINUOUS
 62
               7
  5
219
 10
122.00000000000004
 20
6.7499999999999858
 30
0.0
 11
121.50000000000004
 21
7.7499999999999858
 31
0.0
  0
LINE
  8
DATA
  6
CONTINUOUS
 62
               7
  5
21A
 10
121.50000000000004
 20
7.7499999999999858
 30
0.0
 11
78.500000000000043
 21
7.7499999999999858
 31
0.0
  0
LINE
  8
DATA
  6
CONTINUOUS
 62
               7
  5
21B
 10
-100.49999999999996
 20
24.749999999999986
 30
0.0
 11
-99.999999999999957
 21
25.749999999999986
 31
0.0
  0
LINE
  8
DATA
  6
CONTINUOUS
 62
               7
  5
21C
 10
-99.999999999999957
 20
25.749999999999986
 30
0.0
 11
-49.999999999999957
 21
25.749999999999986
 31
0.0
  0
LINE
  8
DATA
  6
CONTINUOUS
 62
               7
  5
21D
 10
-98.499999999999957
 20
15.749999999999986
 30
0.0
 11
-100.49999999999996
 21
24.749999999999986
 31
0.0
  0
LINE
  8
DATA
  6
CONTINUOUS
 62
               7
  5
21E
 10
-97.499999999999957
 20
15.749999999999986
 30
0.0
 11
-96.499999999999957
 21
7.7499999999999858
 31
0.0
  0
LINE
  8
DATA
  6
CONTINUOUS
 62
               7
  5
21F
 10
-52.499999999999957
 20
15.749999999999986
 30
0.0
 11
-53.499999999999957
 21
7.7499999999999858
 31
0.0
  0
LINE
  8
DATA
  6
CONTINUOUS
 62
               7
  5
220
 10
-98.499999999999957
 20
15.749999999999986
 30
0.0
 11
-51.499999999999957
 21
15.749999999999986
 31
0.0
  0
LINE
  8
DATA
  6
CONTINUOUS
 62
               7
  5
221
 10
-22.499999999999957
 20
15.749999999999986
 30
0.0
 11
-21.499999999999957
 21
7.7499999999999858
 31
0.0
  0
LINE
  8
DATA
  6
CONTINUOUS
 62
               7
  5
222
 10
22.500000000000043
 20
15.749999999999986
 30
0.0
 11
21.500000000000043
 21
7.7499999999999858
 31
0.0
  0
LINE
  8
DATA
  6
CONTINUOUS
 62
               7
  5
223
 10
77.500000000000043
 20
15.749999999999986
 30
0.0
 11
78.500000000000043
 21
7.7499999999999858
 31
0.0
  0
LINE
  8
DATA
  6
CONTINUOUS
 62
               7
  5
224
 10
122.50000000000004
 20
15.749999999999986
 30
0.0
 11
121.50000000000004
 21
7.7499999999999858
 31
0.0
  0
LINE
  8
DATA
  6
CONTINUOUS
 62
               7
  5
225
 10
-49.499999999999957
 20
24.749999999999986
 30
0.0
 11
-49.999999999999957
 21
25.749999999999986
 31
0.0
  0
LINE
  8
DATA
  6
CONTINUOUS
 62
               7
  5
226
 10
-51.499999999999957
 20
15.749999999999986
 30
0.0
 11
-49.499999999999957
 21
24.749999999999986
 31
0.0
  0
LINE
  8
DATA
  6
CONTINUOUS
 62
               7
  5
227
 10
-25.499999999999957
 20
24.749999999999986
 30
0.0
 11
-24.999999999999957
 21
25.749999999999986
 31
0.0
  0
LINE
  8
DATA
  6
CONTINUOUS
 62
               7
  5
228
 10
-24.999999999999957
 20
25.749999999999986
 30
0.0
 11
25.000000000000043
 21
25.749999999999986
 31
0.0
  0
LINE
  8
DATA
  6
CONTINUOUS
 62
               7
  5
229
 10
-23.499999999999957
 20
15.749999999999986
 30
0.0
 11
-25.499999999999957
 21
24.749999999999986
 31
0.0
  0
LINE
  8
DATA
  6
CONTINUOUS
 62
               7
  5
22A
 10
23.500000000000043
 20
15.749999999999986
 30
0.0
 11
25.500000000000043
 21
24.749999999999986
 31
0.0
  0
LINE
  8
DATA
  6
CONTINUOUS
 62
               7
  5
22B
 10
-23.499999999999957
 20
15.749999999999986
 30
0.0
 11
23.500000000000043
 21
15.749999999999986
 31
0.0
  0
LINE
  8
DATA
  6
CONTINUOUS
 62
               7
  5
22C
 10
25.500000000000043
 20
24.749999999999986
 30
0.0
 11
25.000000000000043
 21
25.749999999999986
 31
0.0
  0
LINE
  8
DATA
  6
CONTINUOUS
 62
               7
  5
22D
 10
74.500000000000043
 20
24.749999999999986
 30
0.0
 11
75.000000000000043
 21
25.749999999999986
 31
0.0
  0
LINE
  8
DATA
  6
CONTINUOUS
 62
               7
  5
22E
 10
75.000000000000043
 20
25.749999999999986
 30
0.0
 11
125.00000000000004
 21
25.749999999999986
 31
0.0
  0
LINE
  8
DATA
  6
CONTINUOUS
 62
               7
  5
22F
 10
125.50000000000004
 20
24.749999999999986
 30
0.0
 11
125.00000000000004
 21
25.749999999999986
 31
0.0
  0
LINE
  8
DATA
  6
CONTINUOUS
 62
               7
  5
230
 10
76.500000000000043
 20
15.749999999999986
 30
0.0
 11
74.500000000000043
 21
24.749999999999986
 31
0.0
  0
LINE
  8
DATA
  6
CONTINUOUS
 62
               7
  5
231
 10
123.50000000000004
 20
15.749999999999986
 30
0.0
 11
125.50000000000004
 21
24.749999999999986
 31
0.0
  0
LINE
  8
DATA
  6
CONTINUOUS
 62
               7
  5
232
 10
76.500000000000043
 20
15.749999999999986
 30
0.0
 11
123.50000000000004
 21
15.749999999999986
 31
0.0
  0
LINE
  8
DATA
  6
CONTINUOUS
 62
               7
  5
233
 10
82.500000000000043
 20
64.749999999999986
 30
0.0
 11
117.50000000000004
 21
64.749999999999986
 31
0.0
  0
LINE
  8
DATA
  6
CONTINUOUS
 62
               7
  5
234
 10
80.500000000000043
 20
62.09138106510737
 30
0.0
 11
82.500000000000043
 21
64.749999999999986
 31
0.0
  0
LINE
  8
DATA
  6
CONTINUOUS
 62
               7
  5
235
 10
76.000000000000043
 20
25.749999999999986
 30
0.0
 11
80.500000000000043
 21
62.09138106510737
 31
0.0
  0
LINE
  8
DATA
  6
CONTINUOUS
 62
               7
  5
236
 10
124.00000000000004
 20
25.749999999999986
 30
0.0
 11
119.50000000000004
 21
62.09138106510737
 31
0.0
  0
LINE
  8
DATA
  6
CONTINUOUS
 62
               7
  5
237
 10
119.50000000000004
 20
62.09138106510737
 30
0.0
 11
117.50000000000004
 21
64.749999999999986
 31
0.0
  0
LINE
  8
DATA
  6
CONTINUOUS
 62
               7
  5
238
 10
-92.499999999999957
 20
64.749999999999986
 30
0.0
 11
-57.499999999999957
 21
64.749999999999986
 31
0.0
  0
LINE
  8
DATA
  6
CONTINUOUS
 62
               7
  5
239
 10
-94.499999999999957
 20
62.09138106510737
 30
0.0
 11
-92.499999999999957
 21
64.749999999999986
 31
0.0
  0
LINE
  8
DATA
  6
CONTINUOUS
 62
               7
  5
23A
 10
-55.499999999999957
 20
62.09138106510737
 30
0.0
 11
-57.499999999999957
 21
64.749999999999986
 31
0.0
  0
LINE
  8
DATA
  6
CONTINUOUS
 62
               7
  5
23B
 10
-98.999999999999957
 20
25.749999999999986
 30
0.0
 11
-94.499999999999957
 21
62.09138106510737
 31
0.0
  0
LINE
  8
DATA
  6
CONTINUOUS
 62
               7
  5
23C
 10
-50.999999999999957
 20
25.749999999999986
 30
0.0
 11
-55.499999999999957
 21
62.09138106510737
 31
0.0
  0
LINE
  8
DATA
  6
CONTINUOUS
 62
               7
  5
23D
 10
-17.499999999999957
 20
64.749999999999986
 30
0.0
 11
17.500000000000043
 21
64.749999999999986
 31
0.0
  0
LINE
  8
DATA
  6
CONTINUOUS
 62
               7
  5
23E
 10
-19.499999999999957
 20
62.09138106510737
 30
0.0
 11
-17.499999999999957
 21
64.749999999999986
 31
0.0
  0
LINE
  8
DATA
  6
CONTINUOUS
 62
               7
  5
23F
 10
19.500000000000043
 20
62.09138106510737
 30
0.0
 11
17.500000000000043
 21
64.749999999999986
 31
0.0
  0
LINE
  8
DATA
  6
CONTINUOUS
 62
               7
  5
240
 10
-23.999999999999957
 20
25.749999999999986
 30
0.0
 11
-19.499999999999957
 21
62.09138106510737
 31
0.0
  0
LINE
  8
DATA
  6
CONTINUOUS
 62
               7
  5
241
 10
24.000000000000043
 20
25.749999999999986
 30
0.0
 11
19.500000000000043
 21
62.09138106510737
 31
0.0
  0
TEXT
  8
DATA
 62
               7
  5
242
 10
-79.456299664492647
 20
-110.19977133297813
 30
0.0
 40
4.5227489149305562
  1
AKG
  7
_______
 11
-79.456299664492647
 21
-104.85420352915868
 31
0.0
 73
               3
  0
ENDSEC
  0
EOF
